Oops, an error
Loading. Please wait.

Contigo Tab

version 1
version 1

Whole song

242 views 1 this week
no commentswrite comment
1 2 3 4 5
3 more votes to show rating
add to favorites
launch autoscroll
font size
0
reset
how to read this tab
guitar tuner
Autoscroll
slow
fast
+/-
esc
set tempo
stop
Help us to improve Ultimate-Guitar.com Take our survey!
×
Estimados contertulios los anteriores tabs (con excepcion
de algunos) estan buenos, pero este incluye la escala que se utiliza
dentro de la cancion.


           D                G
---------------------2----------------3
------------------3----3-----------3----3
---------------2----------------0---------
-----------0-------------------------------
----------------------------------------------
----------------------------3---------
Yo no    quiero un  amor civilizado,

       Bm                  G
--------------------2-----------------3
-----------------3----3------------3-----3
-------------4-----------------0---------
------------------------------------------
---------2-----------------------------
----------------------------3---------
con   recibos y escena del sofá;

            D                Bm
---------------------2-------------------2
------------------3----3--------------3-----3
---------------2------------------4---------
------------0-----------------------------
------------------------------2------------
-----------------------------------------
Yo no    quiero que viajes al pasado,

                 F#
---------------------------------2------
-----------------------------2------2-----
-------------------------2----------------
---------------------3-------------------
---------------------------------------
------------------2--------------------
y vuelvas del  mercado

                 G
-------------------------------3-------
---------------------------3------3----
-----------------------3-------------
--------------------4----------------
---------------------------------------
-----------------3-------------------
con ganas de llorar


            Em                  D
----------------------0----------------2
-------------------0-----0----------3----3
---------------0-----------------2-------
------------------------------0-------
------------2---------------------------
-----------------------------------------
Yo no    quiero  vecinascon pucheros

            G                     D
-----------------------3----------------2
-------------------3------3----------3----3
---------------0------------------2-------
-------------------------------0---------
-----------------------------------------
-----------3-------------------------------
Yo no    quiero  sembrar ni compartir,

             G                    Em
------------------------3----------------0---
--------------------3------3----------0----0-
----------------0------------------0---------
----------------------------------------------
--------------------------------2-------------
------------3---------------------------------
Yo no    quiero  catorce de  febrero,

                         A
---------------------0--------------------
-----------------2------2-----------------
-------------2---------------2h-s--4--------
-----------------------------2h-s--4-------
---------0-------------------------------
--------------------------------------
Ni  cumpleaños  feliz

Yo no quiero cargar con tus maletas;
yo no quiero que elijas mi champu;
yo no quiero mudarme de planeta,
cortarme la coleta,
brindar a tu salud.

Yo no quiero domingos por la tarde;
yo no quiero columpio en el jardin;
lo que yo quiero corazon cobarde,
es que mueras por mi.


Coro: Puedes usar la escala o un simple rasgueo

     G                     D
Y morirme contigo si te matas
     F#                   G
y matarme contigo si te mueres
            A                   Bm
porque el amor cuando no muere mata
         G               A
porque amores que matan nunca mueren


Aquí_ Usas las mismas notas que arriba(ordenprogresivo)
D                    G
Yo no quiero juntar para manana,
no me pidas llegar a fin de mes;
yo no quiero comerme una manzana
dos veces por semana
sin ganas de comer.

Yo no quiero calor de invernadero;
yo no quiero besar tu cicatriz;
yo no quiero Paris con aguacero
ni Venecia sin ti

Puedes usar la escala o un rasgueo

        Gm                       A7
No me esperes a las doce en el juzgado;
         Gm                  A7
no me digas 'volvamos a empezar';
         D                   D/C#
yo no quiero ni libre ni ocupado,
               D/C
ni carne ni pecado,
                  G/B
ni orgullo ni piedad.

A7=

-----------0
--------2----2
------0-----
-----------
---0--------
-----------
Se utilizan las mismas notas que en
?No me esperes a las 12 en el juzgado?

Yo no quiero saber por que lo hiciste;
yo no quiero contigo ni sin ti;
lo que yo quiero, muchacha de ojos tristes,
es que mueras por mi.

Coro:?


Fin.

Espero haberlos ayudado cualquier duda, consulta,
amonestaciones u otro puede ser enviado a mi correo.
Suggest correction
Give kudos to tab author, rate the tab!
1 2 3 4 5
comments
print report bad tab
guest
You may want to rate the tab now too:
select rating
Wanna post a correction for this tab? Suggest correction