Oops, an error
Loading. Please wait.

Canción De Otoño Chords

version 4
version 4

Whole song

62 views 1 this week
no commentswrite comment
1 2 3 4 5
3 more votes to show rating
add to favorites
launch autoscroll
font size
0
reset
transpose
0
reset
simplify chords
display chords
guitar tuner
×
Best way to learn
"Canción De Otoño"
Autoscroll
slow
fast
+/-
esc
set tempo
stop
POR: BERLUISMZ

Asus4
|-----------0--------------
|--------------3-----------
|--------2--------2-----2--   x  8
|-----2--------------2-----
|--0-----------------------
|--------------------------

Asus4                                    D             Asus4
¡Cómo sopla el viento en las ventanas!...   ¡cómo llueve hoy!
         D             Dsus2                     Asus4
¡Cómo está la calle de vacía!...  ¡ cómo muere el sol!
       E7              Dsus2           A
Estos días grises del otoño me ponen triste
                                   D               A
y al calor del fuego de mi hoguera,   te recuerdo hoy?
            E7      F#m      D        E7     A
te recuerdo hoy?   a ti, que eres mi vida entera.
     D       E7   A            E7
la brisa de primavera, la claridad.
 F#m       D         E7       A
A ti, que sufres cuando me esperas,
     D       E7     A         D     A    E7       A
que miras a las estrellas y que suspiras?    por mí.

Asus4                                    D             Asus4
¡Cómo arrastra el viento aquellas hojas!,  ¡cómo llueve hoy!
       D               Dsus2          Asus4
Y qué torpe vuela por el cielo ese gorrión,
          E7             Dsus2            A
se han quedado mudos esos nidos de golondrina,
                              D                A
y sentado al borde de la noche?   te recuerdo hoy?
            E7      F#m      D        E7     A
te recuerdo hoy?   a ti, que eres mi vida entera.
     D       E7   A            E7
la brisa de primavera, la claridad.
 F#m       D         E7       A
A ti, que sufres cuando me esperas,
     D       E7     A         D     A    E7       A
que miras a las estrellas y que suspiras?    por mí.

Asus4                          D             Asus4
Los paraguas pasan lentamente?   frente a mi balcón,
      D                 Dsus2             Asus4
el reloj se escucha como siempre en el comedor.
       E7              Dsus2           A
Estos días grises del otoño me ponen triste
                                   D               A
y al calor del fuego de mi hoguera,   te recuerdo hoy?
            E7      F#m      D        E7     A
te recuerdo hoy?   a ti, que eres mi vida entera.
     D       E7   A            E7
la brisa de primavera, la claridad.
 F#m       D         E7       A
A ti, que sufres cuando me esperas,
     D       E7     A         D     A    E7      Asus4
que miras a las estrellas y que suspiras?    por mí.

Asus4
|-----------0--------------         x|----------------------
|--------------3-----------          |----------2-----------
|--------2--------2-----2--   x  4   |--------2-------------
|-----2--------------2-----          |------2---------------
|--0-----------------------          |----0-----------------
|--------------------------          |--0-------------------

A                                        D
¡Cómo sopla el viento en las ventanas!...   ¡cómo llueve hoy!
Asus4
|-----------0--------------         x|----------------------
|--------------3-----------          |----------2-----------
|--------2--------2-----2--   x  2   |--------2-------------
|-----2--------------2-----          |------2---------------
|--0-----------------------          |----0-----------------
|--------------------------          |--0-------------------

Dsus2
|--------0----------------
|------3---3---3----------
|----2-------2---2--------
|--0----------------------
|-------------------------
|-------------------------

Suggest correction
Give kudos to tab author, rate the tab!
1 2 3 4 5
comments
print report bad tab
guest
You may want to rate the tab now too:
select rating
Wanna post a correction for this tab? Suggest correction