Oops, an error
Loading. Please wait.

Fíjate Bien Bass Tab

version 1
version 1

Whole song

Interactive

86 views 1 this week
no commentswrite comment
1 2 3 4 5
3 more votes to show rating
add to favorites
launch autoscroll
font size
0
reset
guitar tuner
Autoscroll
slow
fast
+/-
esc
set tempo
stop
Help us to improve Ultimate-Guitar.com Take our survey!
×
Intro / Coro ( durante el solo creo que tambien )

g|------------------------------------|
d|------------------------------------|
a|-----2-----2------2-----------------|
E|-0-0---0-0---0--0---0-0-3-3-0-------|

Verso: ( dejar sonar un poco cada nota, escucha el disco )

g|-------------------------------------|
d|-------------------------------------|
a|-2---------------2--( let ring )-----|
E|------3-----5------------------------|

Precoro:

  Son los niños..
g|----------------------------|
d|----------------------------|
a|----------------------------|
E|--33333333-55555555---------|
Suggest correction
Give kudos to tab author, rate the tab!
1 2 3 4 5
comments
print report bad tab
guest
You may want to rate the tab now too:
select rating
Wanna post a correction for this tab? Suggest correction