Oops, an error
Loading. Please wait.

Día Lejano Tab

version 2
version 2

Whole song

Interactive

by Juanes
43 views 1 this week
no commentswrite comment
1 2 3 4 5
3 more votes to show rating
add to favorites
launch autoscroll
font size
0
reset
how to read this tab
guitar tuner
×
Best way to learn
"Día Lejano"
Autoscroll
slow
fast
+/-
esc
set tempo
stop
[bueno, esta es una pedida, espero que te guste Angelina]


[intro]

   G         D       Em         D         G         D          Em            D
e----------------------------------------|-----------------------------------------------
B----------------------------------------|-----------------------------------------------
G-----4/5--4-----------------------------|--4/5-4----------------------------------------
D------------5/7-----5~-7--7/9~-4~--(4/5)|--------7-7/9----7-4-4/5---5-7-7/9-4~----------
A----------------------------------------|-----------------------------------------------
E----------------------------------------|-----------------------------------------------


[verso] [NOTA: se escucha bien si primero tocas las cuerdas de bajo A/E y despues las de requinto e/B/G ]

   /          // /       // /     // /    // /                 // /         // /        // /

   G             D          Em7      D       G                    D            Em          D
 --3-------------2----------3--------2--------------------------------------------------------------
 --3-------------3----------3--------3--------------------------------------------------------------
 --4-------------2----------0--------2--------------------------------------------------------------
 --5-------------4----------2--------4--------------------------------------------------------------
 --5-------------5----------2--------5--------------------------------------------------------------
 --3------------------------0-----------------------------------------------------------------------
     A veces me da  por volver a pensar esos días que el tiempo borró y en las huellas que dejó,


[pre-coro]


 [tocalas con  C   D   G   Em7 ]
   -------------------
   ------3------3-----
   ----0------0-------
   --5------5---------
   -------------------
   -------------------

       C           D         G     Em7
 ------0-----------2---------------7--------------------
 ------1-----------3---------3-----8--------------------
 ------0-----------2---------4-----7--------------------
 ------2-----------0---------5-----9--------------------
 ------3---------------------5-----7--------------------
 ------3---------------------------0--------------------
y cada vez que me alejo me siento más,


   C         D          G         Em
 --0---------2----------3---------0------------------------------------
 --3---------3----------3---------0------------------------------------
 --0---------0----------2---------0------------------------------------
 --2---------4----------0---------2------------------------------------
 --3---------5----------x---------2------------------------------------
 -----------------------3---------0------------------------------------
    que cada vez es mas fuerte el sentimento,


   C              D     G      Em7
 --0--------------2------------7--------------------
 --1--------------3-----3------8--------------------
 --0--------------2-----4------7--------------------
 --2--------------0-----5------9--------------------
 --3--------------------5------7--------------------
 --3---------------------------0--------------------
    de que algun día podrás volver,


   C                    D          Dsus4  D
 --0--------------------------2-----3-----2---------------
 --1----------------------2-----3-----3-----3-------------
 --0------------------------3-----2-----2-----2-----------
 --2--------------------0---------------------------------
 --3------------------------------------------------------
 --3------------------------------------------------------
     a aceptar nuestro amor


[verso]

   G             D          Em7      D              G                  D         Em              D
 --3-------------2----------3--------2------------------------------------------------------------------
 --3-------------3----------3--------3------------------------------------------------------------------
 --4-------------2----------0--------2------------------------------------------------------------------
 --5-------------4----------2--------4------------------------------------------------------------------
 --5-------------5----------2--------5------------------------------------------------------------------
 --3------------------------0---------------------------------------------------------------------------
      A veces me da por correr y escapar por la verdad lo que nunca te dí lo que siempre te escondí


[pre-coro]

       C           D         G     Em7
y cada vez que me alejo me siento más,

   C         D          G         Em
    que cada vez es mas fuerte el sentimento,

   C              D     G      Em7
    de que algun día podrás volver,

   C                    D  Dsus4  D
     a aceptar nuestro amor


[coro]


     G      D/F#   Cadd9  D         G     D/F#    Em     D             G     D/F#   Em     D/F#
 -------------------------------------------------------------------------------------------------------
 -------------------------------------3-----3-------3------3-------------3-----3------3-----3-----------
 ------0-0----0-0----0-0----0-0---------0-----0-------0------0-------------0-----0------0-----0---------
 ----5------4------2------0---------5-----4-------2------0-------------5-----4------2------4------------
 -------------------------------------------------------------------------------------------------------
 -------------------------------------------------------------------------------------------------------
 tal vez                      algún día lejano quizas te vuelva a encontrar

     G     D/F#  Em    D         Em7   D/F#     C9    D         Em      D     C   D/F#
--------------------------------------------------------------------------------------------------
-------3-----3-----3-----3---------3-----3-------3------3---------3-----3-----3-----3-------------
---------0-----0-----0-----0---------0-----0-------0------0---------0-----0-----0-----0-----------
-----5-----4-----2-----0---------5-----4-------2------0---------5-----4-----2-----0---------------
--------------------------------------------------------------------------------------------------
--------------------------------------------------------------------------------------------------
 tal vez                   algún día lejano quizas te pueda olvidar


               G      D/F#  C9    D                  Em    D/F#  C       D/F#    [G]
-------------------------------------------------------------------------2------------------------
-----------------3------3-----3-----3------------------3-----3-----3-----3------------------------
-------------------0------0-----0-----0------------------0-----0-----0---2------------------------
---------------5------4-----2-----0------------------5-----4-----2-------0------------------------
--------------------------------------------------------------------------------------------------
-------------------------------------------------------------------------2------------------------
 te pueda olvidar,                      te pueda olvidar,                  ...   amor


[solo]

   (G)         D                          Em            D
 -----------------------------|--------------|---------------------
 --(8)r7-5---5----------------|--------------|---------------------
 ----------7---7b(9)~~r7------|-5h7p5-4-5-4--|--4---2-2/4----------
 -----------------------------|--------------|----5-------4~~------
 -----------------------------|--------------|---------------------
 -----------------------------|--------------|---------------------


            G                        D
 ----------------|------------------------------------------------
 ----------------|----------------17-15b(17)r15~~-----------------
 ----------------|-----15b(16)(16)--------------------------------
 --4-5--7--7/9~--|--17--------------------------------------------
 ----------------|------------------------------------------------
 ----------------|------------------------------------------------


            Em7                                      D                                    Dsus             
 ---------------|-------------------------------|---------------15----15-17-17b(18)(18)(18)(18)r17-15----15--------
 ---------------|-------------------------------|----15----15/17---17---------------------------------17----17~~---
 --17-16h17-16~~|-16h17-16h17-16h17-16-14-16-14-|-16----16---------------------------------------------------------
 ---------------|-------------------------------|------------------------------------------------------------------
 ---------------|-------------------------------|------------------------------------------------------------------
 ---------------|-------------------------------|------------------------------------------------------------------


[pre-coro]

       C           D         G     Em7
y cada vez que me alejo me siento más,

   C         D          G         Em
    que cada vez es mas fuerte el sentimento,

   C              D     G      Em7
    de que algun día podrás volver,

   C                    D  Dsus4  D
     a aceptar nuestro amor


[coro]


     G   D/F#   Cadd9  D         G     Dsus4      C9     D             G     D/F#    C9    D
 tal vez                   algún día lejano yo quizas te vuelva a encontrar

     G   D      C      D         Em7   D          C      D          Em     D     C     
 tal vez                   algún día lejano yo quizas te pueda olvidar


     D         Em      D      C            D         Em     D     C     D/F#  [sosten] 
 te pueda olvidar,                      te pueda olvidar
Suggest correction
Give kudos to tab author, rate the tab!
1 2 3 4 5
comments
print report bad tab
guest
You may want to rate the tab now too:
select rating
Wanna post a correction for this tab? Suggest correction