Oops, an error
Loading. Please wait.

Contigo, Sin Tí Chords

50 views 1 this week
no commentswrite comment
1 2 3 4 5
3 more votes to show rating
add to favorites
launch autoscroll
font size
0
reset
transpose
0
reset
simplify chords
display chords
guitar tuner
Autoscroll
slow
fast
+/-
esc
set tempo
stop
Help us to improve Ultimate-Guitar.com Take our survey!
×
-----------------------------------------------------------
-----------------------------------------------------------
-8s6s8-6-6-8-8-8s6s4-8-8-6-6-8s6s8-6-6-8-8-8s10s11-11-11-13
-8s6s8-6-6-8-8-8s6s4-8-8-6-6-8s6s8-6-6-8-8-8s10s11-11-11-13
-6s4s6-4-4-6-6-6s4s2-6-6-4-4-6s4s6-4-4-6-6-6s8-s9--9--9--11
-----------------------------------------------------------

-----------------------------------------------------------
-----------------------------------------------------------
13-13s11s8-------------------------------------------------
13-13s11s8-------------------------------------------------
11-11s9-s6-------------------------------------------------
-----------------------------------------------------------

D#5                     F#5
Mírame, hoy no quiero pedir perdón
               B5
El silencio lo pongo yo
               A#5
Solo voy a escuchar

   D#5                             F#5
Porque al hablar reconozco tu frialdad
               B5
Eso es algo ya familiar
              A#5
Aunque lo negarás, lo sé

D#m        C#         F#
Y si tengo la oportunidad
    C#         B   C#
Pediré un poco más
          B#5
De tu atención

D#m          C#          F#
Ya lo ves no sirvo para odiar
      C#           B   C#
No me canso de esperar
        B#5
Un poco más

   D#m                 F#
Contigo viviré esclavo de mis dudas
    C#                    B
Sin ti regresará mi mundo de locura
   D#m                     F#
Contigo olvidaré fantasmas del pasado
    C#                        B
Sin ti me perderé si no estás a mi lado
                             Si tu no estás
-----------------------------------------------------------
-----------------------------------------------------------
-8s6s8-6-6-8-8-8s6s4-8-8-6-6-8s6s8-6-6-8-8-8s10s11-11-11-13
-8s6s8-6-6-8-8-8s6s4-8-8-6-6-8s6s8-6-6-8-8-8s10s11-11-11-13
-6s4s6-4-4-6-6-6s4s2-6-6-4-4-6s4s6-4-4-6-6-6s8-s9--9--9--11
-----------------------------------------------------------

-----------------------------------------------------------
-----------------------------------------------------------
13-13s11s8-------------------------------------------------
13-13s11s8-------------------------------------------------
11-11s9-s6-------------------------------------------------
-----------------------------------------------------------

D#5                     F#5
No encontré un motivo, una razón
                  B5
Que le sirva a tu corazón
               A#5
No lo puedo calmar

D#5                              F#5
Mal sabor que nos deja esta discusión
                   B5
No me importa cual fue el error
               A#5
Yo no quiero seguir así


D#m        C#          F#
Intenté no ser tu perdición
     C#           B   C#
Y si duele no fui yo
          B#5
Quien ofendió

D#m           C#          F#
Ahora bien si tengo que rogar
        C#         B   C#
Esta es la oportunidad
         B#5
Para empezar


   D#m                 F#
Contigo viviré esclavo de mis dudas
    C#                    B
Sin ti regresará mi mundo de locura
   D#m                     F#
Contigo olvidaré fantasmas del pasado
    C#                        B
Sin ti me perderé si no estás a mi lado

   D#m                  F#
Contigo acabaré por desecharlo todo
    C#                       B
Sin ti me hundiré ahogado en este lodo
   D#m                     F#
Contigo de una vez me sentiré atrapado
    C#                      B
Sin ti ya no tendré todo lo que me has dado


                             Si tu no estás     no me queda
-----------------------------------------------------------
-----------------------------------------------------------
-8s6s8-6-6-8-8-8s6s4-8-8-6-6-8s6s8-6-6-8-8-8s10s11-11-11-13
-8s6s8-6-6-8-8-8s6s4-8-8-6-6-8s6s8-6-6-8-8-8s10s11-11-11-13
-6s4s6-4-4-6-6-6s4s2-6-6-4-4-6s4s6-4-4-6-6-6s8-s9--9--9--11
-----------------------------------------------------------

ré
-----------------------------------------------------------
-----------------------------------------------------------
13-13s11s8-------------------------------------------------
13-13s11s8-------------------------------------------------
11-11s9-s6-------------------------------------------------
-----------------------------------------------------------

(Ahora viene el solo que no sé sacar)

D#m                 F#
Contigo viviré esclavo de mis dudas
    C#                    B
Sin ti regresará mi mundo de locura
   D#m                     F#
Contigo olvidaré fantasmas del pasado
    C#                        B
Sin ti me perderé si no estás a mi lado

   D#m                  F#
Contigo acabaré por desecharlo todo
    C#                       B
Sin ti me hundiré ahogado en este lodo
   D#m                     F#
Contigo de una vez me sentiré atrapado
    C#                      B
Sin ti ya no tendré todo lo que me has dado


                             Si tu no estás     no quiero
-----------------------------------------------------------
-----------------------------------------------------------
-8s6s8-6-6-8-8-8s6s4-8-8-6-6-8s6s8-6-6-8-8-8s10s11-11-11-13
-8s6s8-6-6-8-8-8s6s4-8-8-6-6-8s6s8-6-6-8-8-8s10s11-11-11-13
-6s4s6-4-4-6-6-6s4s2-6-6-4-4-6s4s6-4-4-6-6-6s8-s9--9--9--11
-----------------------------------------------------------

seguir
-----------------------------------------------------------
-----------------------------------------------------------
13-13s11s8-------------------------------------------------
13-13s11s8-------------------------------------------------
11-11s9-s6-------------------------------------------------
-----------------------------------------------------------

(El final es un poco más complicado y no sé sacarlo)
Suggest correction
Give kudos to tab author, rate the tab!
1 2 3 4 5
comments
print report bad tab
guest
You may want to rate the tab now too:
select rating
Wanna post a correction for this tab? Suggest correction