Oops, an error
Loading. Please wait.

Cuando Tus Sueños Te Hagan Llorar Tab

version 1
version 1

Whole song

235 views 3 this week
no commentswrite comment
1 2 3 4 5
3 more votes to show rating
add to favorites
launch autoscroll
font size
0
reset
how to read this tab
guitar tuner
Autoscroll
slow
fast
+/-
esc
set tempo
stop
Help us to improve Ultimate-Guitar.com Take our survey!
×
NOTA:

Espero y te ayude en algo esta tab.

Si necesitas una tab en especial, escríbeme o visita...


G||-------|-------|-------|-------|-------|-------|-------|-------|
D||-------|-------|-------|-------|-------|-------|-------|-------|
A||-------|-------|-------|-------|-------|-------|-------|-------|
E||-------|-------|-------|-------|-------|-------|-------|-------|


-------|-------|-------|-------|-------|-------|-------|-------|
-------|-------|-------|-------|-------|-------|-------|-------|
-------|-------|-------|-------|-------|-------|-------|-------|
-------|-------|-------|-------|-------|-------|-------|-------|


-------|-------|-------|-------|-------|-------|-------|-------|
-------|-------|-------|-------|-------|-------|-------|-------|
-------|-------|-------|-------|-------|-------|-------|-------|
-------|-------|-------|-------|-------|-------|-------|-------|


          H        Q.     E     W
-------|---------------------|-------------------|
-------|---------------------|-------------------|
-------|--6--------L------4--|--L----------------|
-------|---------------------|-------------------|


  E  E  E  E  E  E  E  E     E  E  E  E  E  Q.
--------------------------|------------------------|
--------------------------|------------------------|
--2--2--2--2--2--2--2--2--|--2--2--2--2--2--4------|
--------------------------|------------------------|


  H        Q.     E     W                   E  E  E  E  E  E  E  E
---------------------|-------------------|--------------------------|
---------------------|-------------------|--------------------------|
--6--------L------4--|--L----------------|--2--2--2--2--2--2--2--2--|
---------------------|-------------------|--------------------------|


  E  E  E  E  E  E  E  E     W                   H.           E  E
--------------------------|-------------------|---------------------|
--------------------------|-------------------|---------------------|
--2--2--2--2--2--2--2--2--|--6----------------|--L------------1--1--|
--------------------------|-------------------|---------------------|


  W                   H.           E  E     W
-------------------|---------------------|-------------------|
-------------------|---------------------|-------------------|
--1----------------|--L------------1--1--|--2----------------|
-------------------|---------------------|-------------------|


  W                   W                   W
-------------------|-------------------|-------------------|
-------------------|-------------------|-------------------|
--L----------------|--6----------------|--4----------------|
-------------------|-------------------|-------------------|


  E  E  E  E  E  E  E  E     E  E  E  E  E  E  E  E
--------------------------|--------------------------|
--------------------------|--------------------------|
--2--2--2--2--2--2--2--2--|--2--2--2--2--2--2--2--2--|
--------------------------|--------------------------|


  E  E  E  E  E  E  E  E     E  E  E  E  E  E  E  E
--------------------------|--------------------------|
--------------------------|--------------------------|
--6--6--6--6--6--6--6--6--|--6--6--6--6--6--6--6--6--|
--------------------------|--------------------------|


  E  E  E  E  E  E  E  E     E  E  E  E  E  E  E  E
--------------------------|--------------------------|
--------------------------|--------------------------|
--2--2--2--2--2--2--2--2--|--2--2--2--2--2--2--2--2--|
--------------------------|--------------------------|


  W                   H.           E  E     H        Q.     E
-------------------|---------------------|---------------------|
-------------------|---------------------|---------------------|
--6----------------|--4------------4--4--|--6--------L------4--|
-------------------|---------------------|---------------------|


  W                   H        Q.     E     W
-------------------|---------------------|-------------------|
-------------------|---------------------|-------------------|
--L----------------|--1--------L------2--|--L----------------|
-------------------|---------------------|-------------------|


  Q.     Q    E  E  E     E  E  E  Q    E  Q
-----------------------|------------------------|
-----------------------|------------------------|
--6------6----6--6--4--|--L--4--4--4----4--4----|
-----------------------|------------------------|


  Q.     Q    E  E  E     E  E  E  Q    E  E  E
-----------------------|-------------------------|
-----------------------|-------------------------|
--1------1----1--1--2--|--L--2--2--2----2--2--2--|
-----------------------|-------------------------|


  Q.     Q    E  E  E     E  E  E  Q    E  Q
-----------------------|------------------------|
-----------------------|------------------------|
--6------6----6--6--4--|--L--4--4--4----4--4----|
-----------------------|------------------------|


  Q.     Q    E  E  E     E  E  E  Q    E  E  E
-----------------------|-------------------------|
-----------------------|-------------------------|
--1------1----1--1--2--|--L--2--2--2----2--2--2--|
-----------------------|-------------------------|


  H        Q.     E     W                   E  E  E  E  E  E  E  E
---------------------|-------------------|--------------------------|
---------------------|-------------------|--------------------------|
--6--------L------4--|--L----------------|--2--2--2--2--2--2--2--2--|
---------------------|-------------------|--------------------------|


  E  E  E  E  E  Q.        H        Q.     E     W
------------------------|---------------------|-------------------|
------------------------|---------------------|-------------------|
--2--2--2--2--2--4------|--6--------L------4--|--L----------------|
------------------------|---------------------|-------------------|


  E  E  E  E  E  E  E  E     E  E  E  E  E  E  E  E
--------------------------|--------------------------|
--------------------------|--------------------------|
--2--2--2--2--2--2--2--2--|--2--2--2--2--2--2--2--2--|
--------------------------|--------------------------|


  W                   H.           E  E     W
-------------------|---------------------|-------------------|
-------------------|---------------------|-------------------|
--6----------------|--L------------1--1--|--1----------------|
-------------------|---------------------|-------------------|


  H.           E  E     W                   W
---------------------|-------------------|-------------------|
---------------------|-------------------|-------------------|
--L------------1--1--|--2----------------|--L----------------|
---------------------|-------------------|-------------------|


  W                   W                   E  E  E  E  E  E  E  E
-------------------|-------------------|--------------------------|
-------------------|-------------------|--------------------------|
--6----------------|--4----------------|--2--2--2--2--2--2--2--2--|
-------------------|-------------------|--------------------------|


  E  E  E  E  E  E  E  E     E  E  E  E  E  E  E  E
--------------------------|--------------------------|
--------------------------|--------------------------|
--2--2--2--2--2--2--2--2--|--6--6--6--6--6--6--6--6--|
--------------------------|--------------------------|


  E  E  E  E  E  E  E  E     E  E  E  E  E  E  E  E
--------------------------|--------------------------|
--------------------------|--------------------------|
--6--6--6--6--6--6--6--6--|--2--2--2--2--2--2--2--2--|
--------------------------|--------------------------|


  E  E  E  E  E  E  E  E     W                   W
--------------------------|-------------------|-------------------|
--------------------------|-------------------|-------------------|
--2--2--2--2--2--2--2--2--|--6----------------|--4----------------|
--------------------------|-------------------|-------------------|


  E  E  E  E  E  E  E  E     E  E  E  E  E  E  E  E
--------------------------|--------------------------|
--------------------------|--------------------------|
--6--6--6--6--6--6--6--6--|--6--6--6--6--6--6--6--6--|
--------------------------|--------------------------|


  E  E  E  E  E  E  E  E     E  E  E  E  E  E  E  E
--------------------------|--------------------------|
--------------------------|--------------------------|
--1--1--1--1--1--1--1--1--|--1--1--1--1--1--1--1--1--|
--------------------------|--------------------------|


  E  E  E  E  E  E  E  E     E  E  E  E  E  E  E  E
--------------------------|--------------------------|
--------------------------|--------------------------|
--2--2--2--2--2--2--2--2--|--2--2--2--2--2--2--2--2--|
--------------------------|--------------------------|


  E  E  E  E  E  E  E  E     E  E  E  E  E  E  E  E
--------------------------|--------------------------|
--------------------------|--------------------------|
--4--4--4--4--4--4--4--4--|--4--4--4--4--4--4--4--4--|
--------------------------|--------------------------|


  E  E  E  E  E  E  E  E     E  E  E  E  E  E  E  E
--------------------------|--------------------------|
--------------------------|--------------------------|
--6--6--6--6--6--6--6--6--|--6--6--6--6--6--6--6--6--|
--------------------------|--------------------------|


  E  E  E  E  E  E  E  E     E  E  E  E  E  E  E  E
--------------------------|--------------------------|
--------------------------|--------------------------|
--1--1--1--1--1--1--1--1--|--1--1--1--1--1--1--1--1--|
--------------------------|--------------------------|


  E  E  E  E  E  E  E  E     E  E  E  E  E  E  E  E
--------------------------|--------------------------|
--------------------------|--------------------------|
--2--2--2--2--2--2--2--2--|--2--2--2--2--2--2--2--2--|
--------------------------|--------------------------|


  E  E  E  E  E  E  E  E     E  E  E  E  E  E  E  E
--------------------------|--------------------------|
--------------------------|--------------------------|
--4--4--4--4--4--4--4--4--|--4--4--4--4--4--4--4--4--|
--------------------------|--------------------------|


  E  E  E  E  E  E  E  E     E  E  E  E  E  E  E  E
--------------------------|--------------------------|
--------------------------|--------------------------|
--6--6--6--6--6--6--6--6--|--6--6--6--6--6--6--6--6--|
--------------------------|--------------------------|


  E  E  E  E  E  E  E  E     E  E  E  E  E  E  E  E
--------------------------|--------------------------|
--------------------------|--------------------------|
--1--1--1--1--1--1--1--1--|--1--1--1--1--1--1--1--1--|
--------------------------|--------------------------|


  E  E  E  E  E  E  E  E     E  E  E  E  E  E  E  E
--------------------------|--------------------------|
--------------------------|--------------------------|
--2--2--2--2--2--2--2--2--|--2--2--2--2--2--2--2--2--|
--------------------------|--------------------------|


  E  E  E  E  E  E  E  E     E  E  E  E  E  E  E  E
--------------------------|--------------------------|-----|-----|
--------------------------|--------------------------|-----|-----|
--4--4--4--4--4--4--4--4--|--4--4--4--4--4--4--4--4--|-----|-----|
--------------------------|--------------------------|-----|-----|


              E  E  E  E  E  Q.        H        Q    Q
-----|-----|------------------------|---------------------|
-----|-----|------------------------|---------------------|
-----|-----|--4--4--4--4--4---------|---------------------|
-----|-----|------------------------|-----------1----2----|


  W                   H.           E  E     W
-------------------|---------------------|-------------------|
-------------------|---------------------|-------------------|
--1----------------|--L------------1--1--|--2----------------|
-------------------|---------------------|-------------------|


  W                   W                   W
-------------------|-------------------|-------------------|
-------------------|-------------------|-------------------|
--L----------------|--6----------------|--4----------------|
-------------------|-------------------|-------------------|


  E  E  E  E  E  E  E  E     E  E  E  E  E  E  E  E
--------------------------|--------------------------|
--------------------------|--------------------------|
--2--2--2--2--2--2--2--2--|--2--2--2--2--2--2--2--2--|
--------------------------|--------------------------|


  E  E  E  E  E  E  E  E     E  E  E  E  E  E  E  E
--------------------------|--------------------------|
--------------------------|--------------------------|
--6--6--6--6--6--6--6--6--|--6--6--6--6--6--6--6--6--|
--------------------------|--------------------------|


  E  E  E  E  E  E  E  E     E  E  E  E  E  E  E  E
--------------------------|--------------------------|
--------------------------|--------------------------|
--2--2--2--2--2--2--2--2--|--2--2--2--2--2--2--2--2--|
--------------------------|--------------------------|


  W                   H.           E  E
-------------------|---------------------|-------||
-------------------|---------------------|-------||
--6----------------|--4------------4--4--|-------||
-------------------|---------------------|-------||


NOTA:

Espero y te ayude en algo esta tab.

Si necesitas una tab en especial, escríbeme o visita...


Duration Legend
---------------
W - whole
H - half
Q - quarter
E - 8th
S - 16th
T - 32nd
X - 64th
. - note dotted
|-n-|  - n-tuplets


Tablature Legend
----------------
L - tied note
x - dead note
g - grace note
(n) - ghost note
> - accentuded note
NH - natural harmonic
AH - artificial harmonic
TH - tapped harmonic
SH - semi harmonic
PH - pitch harmonic
h - hammer on
p - pull off
b - bend
br - bendRelease
pb - preBend
pbr - preBendRelease
brb - bendReleaseBend
n/ - tremolo bar dip
n - tremolo bar dive
-/n - tremolo bar Release up
/n - tremolo bar inverted dip
/n - tremolo bar return
-n - tremolo bar Release down
S - shift slide
s - legato slide
/ -  slide into from below or out of upwards
 -  slide into from above or out of downwards
~ - vibrato
W - wide vibrato
tr - trill
TP - tremolo picking
T - tapping
S - slap
P - pop
< - fade in
^ - brush up
v - brush down
Suggest correction
Give kudos to tab author, rate the tab!
1 2 3 4 5
comments
print report bad tab
guest
You may want to rate the tab now too:
select rating
Wanna post a correction for this tab? Suggest correction