Oops, an error
Loading. Please wait.

Lágrimas De Dolor Bass

83 views 1 this week
no commentswrite comment
1 2 3 4 5
3 more votes to show rating
add to favorites
launch autoscroll
font size
0
reset
guitar tuner
×
Best way to learn
"Lágrimas De Dolor"
Autoscroll
slow
fast
+/-
esc
set tempo
stop
NOTA: Soy nuevo en esto. Por favor, perdón por los posibles errores
que puedan existir.

LOS VERSOS Y EL ESTRIBILLO LLEVAN ESTE RITMO: 
------------------------------------------------------
------------------------------------------------------
----------------------------66666666666---------------
-66666666666---22222222222---------------666666666----
     A#		 F#	      D#	    A#

EN LOS PUENTES SE TOCA ALGO ASI: 
-------------------------------------------------------------------
-------------------------------------------------------------------
-6---6---6----6-8-6-8-6-8-6---6---6---6--8-8-8-8--9-9-9-9-11-11-11-
---6---6---6----------------6---6---6------------------------------

DURANTE EL SÓLO DE GUITARRA EL BAJO REPITE UN PEQUEÑO PUNTEO TAL QUE ASI:
------5--3--1--0-----------------------
---------------------0--1--3-----------
---3--------------3--------------------
---------------------------------------

LA LETRA DE LA CANCIÓN ES ASI:

VERSO:	Un lunes se marchó	quiza para nunca volver
	Pero dejó su corazón 	a su amor más fiel
	No llamó		durante meses ni escribió
	La mujer comprendió	que su soldado cayó

PUENTE:	Y entre llantos suplicaba a su Señor	no lo lleves por favor
	Pero a sus plegarias nadie contestó	y la vida se quitó

ESTRIBILLO: Lagrimas de dolor sobre un rostro sin voz
	    La batalla apagó su corazón
	    Esa estúpida guerra cruel que te arranca la piel
	    Su veneno atacó, supo vencer.

VERSO:	Nadie le recibió	el triste día que volvió
	A su esposa llamó,	el silencio habló
	Cariño dónde estás	ya no me iré nunca jamás
	Sobre un viejo colchón	la encontró sin color

PUENTE:	Y entre llantos maldecía a su Señor
	¿por qué ella y no yo?
	Y besándola en las manos la nombró
	Antes de decir adios.

ESTRIBILLO
SOLO
ESTRIBILLO
Suggest correction
Give kudos to tab author, rate the tab!
1 2 3 4 5
comments
print report bad tab
guest
You may want to rate the tab now too:
select rating
Wanna post a correction for this tab? Suggest correction