Oops, an error
Loading. Please wait.

Se Olvidó Tab

version 1
version 1

Whole song

Interactive

51 views 1 this week
no commentswrite comment
1 2 3 4 5
3 more votes to show rating
add to favorites
×
Save as Personal and add changes to this tab that will be seen only by you. Learn more ›
×
You can save this tab as Personal to edit and correct it or add notes. All changes will be seen only by you. Learn more »
save as personal
new!
launch autoscroll
font size
0
reset
how to read this tab
guitar tuner
Autoscroll
slow
fast
+/-
esc
set tempo
stop
E||------------------------------------------
B||--12--------------------------------------
G||------------------------------------------
D||------------------------------------------
A||------------------------------------------
E||------------------------------------------


  S S S S S S S S S S S S S S S S
----------------------------------|
--5-0-0-0-4-0-0-0-5-0-0-0-7-0-0-0-|
----------------------------------|
----------------------------------|
----------------------------------|
----------------------------------|


   S S S S  S S S S S S S S S S S S
------------------------------------|
--12-0-0-0-10-0-0-0-8-0-0-0-7-0-0-0-|
------------------------------------|
------------------------------------|
------------------------------------|
------------------------------------|


  S S S S S S S S S S S S S S S S
----------------------------------|
--5-0-0-0-4-0-0-0-5-0-0-0-7-0-0-0-|
----------------------------------|
----------------------------------|
----------------------------------|
----------------------------------|


   S S S S  S S S S S S S S S S S S
--12-0-0-0-10-0-0-0-8-0-0-0-7-0-0-0-|
------------------------------------|
------------------------------------|
------------------------------------|
------------------------------------|
------------------------------------|


  S S S S S S S S S S S S S S S S
--5-0-0-0-3-0-0-0-2-0-0-0-3-0-0-0-|
----------------------------------|
----------------------------------|
----------------------------------|
----------------------------------|
----------------------------------|


   S S S S  S S S S S S S S S S S S
--12-0-0-0-10-0-0-0-8-0-0-0-7-0-0-0-|
------------------------------------|
------------------------------------|
------------------------------------|
------------------------------------|
------------------------------------|


  S S S S S S S S S S S S S S S S
--5-0-0-0-3-0-0-0-2-0-0-0-3-0-0-0-|
----------------------------------|
----------------------------------|
----------------------------------|
----------------------------------|
----------------------------------|


  W                   W
-------------------|-------------------|
-------------------|-------------------|
-------------------|-------------------|
--2----------------|--L----------------|
--2----------------|--L----------------|
--0----------------|--L----------------|

ALEJANDRO LAUYOLA
  W                   W
-------------------|-------------------|
-------------------|-------------------|
-------------------|-------------------|
--L----------------|--L----------------|
--L----------------|--L----------------|
--L----------------|--L----------------|


    PH     PH     PH     PH
    Q      Q      Q      Q
------------------------------|
------------------------------|
------------------------------|
---------<>5----<>4-----------|
--<>3------------------<>5----|
------------------------------|


    PH     PH     PH     PH
    Q      Q      Q      Q
------------------------------|
------------------------------|
------------------------------|
---------<>5----<>4-----------|
--<>3------------------<>5----|
------------------------------|


  W                   W
-------------------|-------------------|
-------------------|-------------------|
-------------------|-------------------|
--2----------------|--L----------------|
--2----------------|--L----------------|
--0----------------|--L----------------|


  W                   W
-------------------|-------------------|
-------------------|-------------------|
-------------------|-------------------|
--L----------------|--L----------------|
--L----------------|--L----------------|
--L----------------|--L----------------|


    PH     PH     PH     PH
    Q      Q      Q      Q
------------------------------|
------------------------------|
------------------------------|
---------<>5----<>4-----------|
--<>3------------------<>5----|
------------------------------|


    PH     PH     PH     PH
    Q      Q      Q      Q
------------------------------|
------------------------------|
------------------------------|
---------<>5----<>4-----------|
--<>3------------------<>5----|
------------------------------|


  S S S S S S S S S S S S S S S S
----------------------------------|
----------------------------------|
----------------------------------|
----------------------------------|
----------------------------------|
--0-0-0-0-0-0-0-0-0-0-0-0-0-0-0-0-|


  S S S S S S S S S S S S S S S S
----------------------------------|
----------------------------------|
----------------------------------|
----------------------------------|
----------------------------------|
--0-0-0-0-0-0-0-0-0-0-0-0-0-0-0-0-|


  S S S S S S S S S S S S S S S S
----------------------------------|
----------------------------------|
----------------------------------|
----------------------------------|
----------------------------------|
--0-0-0-0-0-0-0-0-0-0-0-0-0-0-0-0-|


  S S S S S S S S S S S S S S S S
----------------------------------|
----------------------------------|
----------------------------------|
----------------------------------|
----------------------------------|
--0-0-0-0-0-0-0-0-0-0-0-0-0-0-0-0-|


    PH     PH     PH     PH
    Q      Q      Q      Q
------------------------------|
------------------------------|
------------------------------|
---------<>5----<>4-----------|
--<>3------------------<>5----|
------------------------------|


    PH     PH     PH     PH
    Q      Q      Q      Q
------------------------------|
------------------------------|
------------------------------|
---------<>5----<>4-----------|
--<>3------------------<>5----|
------------------------------|


  S S S S S S S S S S S S S S S S
----------------------------------|
----------------------------------|
----------------------------------|
----------------------------------|
----------------------------------|
--0-0-0-0-0-0-0-0-0-0-0-0-0-0-0-0-|


  S S S S S S S S S S S S S S S S
----------------------------------|
----------------------------------|
----------------------------------|
----------------------------------|
----------------------------------|
--0-0-0-0-0-0-0-0-0-0-0-0-0-0-0-0-|


  S S S S S S S S S S S S S S S S
----------------------------------|
----------------------------------|
----------------------------------|
----------------------------------|
----------------------------------|
--0-0-0-0-0-0-0-0-0-0-0-0-0-0-0-0-|


  S S S S S S S S S S S S S S S S
----------------------------------|
----------------------------------|
----------------------------------|
----------------------------------|
----------------------------------|
--0-0-0-0-0-0-0-0-0-0-0-0-0-0-0-0-|


    PH     PH     PH     PH
    Q      Q      Q      Q
------------------------------|
------------------------------|
------------------------------|
---------<>5----<>4-----------|
--<>3------------------<>5----|
------------------------------|


    PH     PH     PH     PH
    Q      Q      Q      Q
------------------------------|
------------------------------|
------------------------------|
---------<>5----<>4-----------|
--<>3------------------<>5----|
------------------------------|


  W                   W
-------------------|-------------------|
-------------------|-------------------|
--5----------------|--7----------------|
--5----------------|--7----------------|
--3----------------|--5----------------|
-------------------|-------------------|


  W                   W
-------------------|-------------------|
-------------------|-------------------|
-------------------|--5----------------|
--5----------------|--5----------------|
--5----------------|--3----------------|
--3----------------|-------------------|


  W                   W
-------------------|-------------------|
-------------------|-------------------|
--7----------------|--9----------------|
--7----------------|--9----------------|
--5----------------|--7----------------|
-------------------|-------------------|


  S S S S S S S S S S S S S S S S
----------------------------------|
----------------------------------|
----------------------------------|
----------------------------------|
--0-0-0-0-0-0-0-0-0-0-0-0-0-0-0-0-|
----------------------------------|


  S S S S S S S S S S S S S S S S
----------------------------------|
----------------------------------|
----------------------------------|
----------------------------------|
--2-2-2-2-2-2-2-2-2-2-2-2-2-2-2-2-|
----------------------------------|


  S S S S S S S S S S S S S S S S
----------------------------------|
----------------------------------|
----------------------------------|
----------------------------------|
--3-3-3-3-3-3-3-3-3-3-3-3-3-3-3-3-|
----------------------------------|


  E  E  E  E  E  E  E  E
--------------------------|-------|
--------------------------|-------|
--------------------------|-------|
--7--7--7--7--7--7--7--7--|-------|
--5--5--5--5--5--5--5--5--|-------|
--------------------------|-------|


  W                   W
-------------------|-------------------|
-------------------|-------------------|
-------------------|-------------------|
--2----------------|--L----------------|
--2----------------|--L----------------|
--0----------------|--L----------------|

ALEJANDRO LAUYOLA
  W                   W
-------------------|-------------------|
-------------------|-------------------|
-------------------|-------------------|
--L----------------|--L----------------|
--L----------------|--L----------------|
--L----------------|--L----------------|


    PH     PH     PH     PH
    Q      Q      Q      Q
------------------------------|
------------------------------|
------------------------------|
---------<>5----<>4-----------|
--<>3------------------<>5----|
------------------------------|


    PH     PH     PH     PH
    Q      Q      Q      Q
------------------------------|
------------------------------|
------------------------------|
---------<>5----<>4-----------|
--<>3------------------<>5----|
------------------------------|


  W                   W
-------------------|-------------------|
-------------------|-------------------|
-------------------|-------------------|
--2----------------|--L----------------|
--2----------------|--L----------------|
--0----------------|--L----------------|


  W                   W
-------------------|-------------------|
-------------------|-------------------|
-------------------|-------------------|
--L----------------|--L----------------|
--L----------------|--L----------------|
--L----------------|--L----------------|


    PH     PH     PH     PH
    Q      Q      Q      Q
------------------------------|
------------------------------|
------------------------------|
---------<>5----<>4-----------|
--<>3------------------<>5----|
------------------------------|


    PH     PH     PH     PH
    Q      Q      Q      Q
------------------------------|
------------------------------|
------------------------------|
---------<>5----<>4-----------|
--<>3------------------<>5----|
------------------------------|


  S S S S S S S S S S S S S S S S
----------------------------------|
----------------------------------|
----------------------------------|
----------------------------------|
----------------------------------|
--0-0-0-0-0-0-0-0-0-0-0-0-0-0-0-0-|


  S S S S S S S S S S S S S S S S
----------------------------------|
----------------------------------|
----------------------------------|
----------------------------------|
----------------------------------|
--0-0-0-0-0-0-0-0-0-0-0-0-0-0-0-0-|


  S S S S S S S S S S S S S S S S
----------------------------------|
----------------------------------|
----------------------------------|
----------------------------------|
----------------------------------|
--0-0-0-0-0-0-0-0-0-0-0-0-0-0-0-0-|


  S S S S S S S S S S S S S S S S
----------------------------------|
----------------------------------|
----------------------------------|
----------------------------------|
----------------------------------|
--0-0-0-0-0-0-0-0-0-0-0-0-0-0-0-0-|


    PH     PH     PH     PH
    Q      Q      Q      Q
------------------------------|
------------------------------|
------------------------------|
---------<>5----<>4-----------|
--<>3------------------<>5----|
------------------------------|


    PH     PH     PH     PH
    Q      Q      Q      Q
------------------------------|
------------------------------|
------------------------------|
---------<>5----<>4-----------|
--<>3------------------<>5----|
------------------------------|


  S S S S S S S S S S S S S S S S
----------------------------------|
----------------------------------|
----------------------------------|
----------------------------------|
----------------------------------|
--0-0-0-0-0-0-0-0-0-0-0-0-0-0-0-0-|


  S S S S S S S S S S S S S S S S
----------------------------------|
----------------------------------|
----------------------------------|
----------------------------------|
----------------------------------|
--0-0-0-0-0-0-0-0-0-0-0-0-0-0-0-0-|


  S S S S S S S S S S S S S S S S
----------------------------------|
----------------------------------|
----------------------------------|
----------------------------------|
----------------------------------|
--0-0-0-0-0-0-0-0-0-0-0-0-0-0-0-0-|


  S S S S S S S S S S S S S S S S
----------------------------------|
----------------------------------|
----------------------------------|
----------------------------------|
----------------------------------|
--0-0-0-0-0-0-0-0-0-0-0-0-0-0-0-0-|


    PH     PH     PH     PH
    Q      Q      Q      Q
------------------------------|
------------------------------|
------------------------------|
---------<>5----<>4-----------|
--<>3------------------<>5----|
------------------------------|


    PH     PH     PH     PH
    Q      Q      Q      Q
------------------------------|
------------------------------|
------------------------------|
---------<>5----<>4-----------|
--<>3------------------<>5----|
------------------------------|


  W                   W
-------------------|-------------------|
-------------------|-------------------|
--5----------------|--7----------------|
--5----------------|--7----------------|
--3----------------|--5----------------|
-------------------|-------------------|


  W                   W
-------------------|-------------------|
-------------------|-------------------|
-------------------|--5----------------|
--5----------------|--5----------------|
--5----------------|--3----------------|
--3----------------|-------------------|

ALEJANDRO LAUYOLA
  W                   W
-------------------|-------------------|
-------------------|-------------------|
--7----------------|--9----------------|
--7----------------|--9----------------|
--5----------------|--7----------------|
-------------------|-------------------|


  S S S S S S S S S S S S S S S S
----------------------------------|
----------------------------------|
----------------------------------|
----------------------------------|
--0-0-0-0-0-0-0-0-0-0-0-0-0-0-0-0-|
----------------------------------|


  S S S S S S S S S S S S S S S S
----------------------------------|
----------------------------------|
----------------------------------|
----------------------------------|
--2-2-2-2-2-2-2-2-2-2-2-2-2-2-2-2-|
----------------------------------|


  S S S S S S S S S S S S S S S S
----------------------------------|
----------------------------------|
----------------------------------|
----------------------------------|
--3-3-3-3-3-3-3-3-3-3-3-3-3-3-3-3-|
----------------------------------|


  E  E  E  E  E  E  E  E
--------------------------|-------|
--------------------------|-------|
--------------------------|-------|
--7--7--7--7--7--7--7--7--|-------|
--5--5--5--5--5--5--5--5--|-------|
--------------------------|-------|


  W                   W
-------------------|-------------------|
-------------------|-------------------|
-------------------|--7----------------|
--2----------------|--7----------------|
--2----------------|--5----------------|
--0----------------|-------------------|


  W                   W
-------------------|-------------------|
-------------------|-------------------|
--5----------------|-------------------|
--5----------------|--7----------------|
--3----------------|--7----------------|
-------------------|--5----------------|


  W                   W
-------------------|-------------------|
-------------------|-------------------|
-------------------|--7----------------|
--2----------------|--7----------------|
--2----------------|--5----------------|
--0----------------|-------------------|


  W                   W
-------------------|-------------------|
-------------------|-------------------|
--9----------------|--5----------------|
--9----------------|--5----------------|
--7----------------|--3----------------|
-------------------|-------------------|


   S S S S  S S S S S S S S S S S S
------------------------------------|
--12-0-0-0-10-0-0-0-8-0-0-0-7-0-0-0-|
------------------------------------|
------------------------------------|
------------------------------------|
------------------------------------|


  S S S S S S S S S S S S S S S S
----------------------------------|
--5-0-0-0-4-0-0-0-5-0-0-0-7-0-0-0-|
----------------------------------|
----------------------------------|
----------------------------------|
----------------------------------|


  W                   W
-------------------|-------------------|
-------------------|-------------------|
-------------------|--7----------------|
--2----------------|--7----------------|
--2----------------|--5----------------|
--0----------------|-------------------|


  W                   W
-------------------|-------------------|
-------------------|-------------------|
--5----------------|-------------------|
--5----------------|--7----------------|
--3----------------|--7----------------|
-------------------|--5----------------|


  W                   W
-------------------|-------------------|
-------------------|-------------------|
-------------------|--7----------------|
--2----------------|--7----------------|
--2----------------|--5----------------|
--0----------------|-------------------|


  W                   W
-------------------|-------------------|
-------------------|-------------------|
--9----------------|--5----------------|
--9----------------|--5----------------|
--7----------------|--3----------------|
-------------------|-------------------|


   S S S S  S S S S S S S S S S S S
------------------------------------|
--12-0-0-0-10-0-0-0-8-0-0-0-7-0-0-0-|
------------------------------------|
------------------------------------|
------------------------------------|
------------------------------------|


  S S S S S S S S S S S S S S S S
----------------------------------|
--5-0-0-0-4-0-0-0-5-0-0-0-7-0-0-0-|
----------------------------------|
----------------------------------|
----------------------------------|
----------------------------------|


   S S S S  S S S S S S S S S S S S
--12-0-0-0-10-0-0-0-8-0-0-0-7-0-0-0-|
------------------------------------|
------------------------------------|
------------------------------------|
------------------------------------|
------------------------------------|


  S S S S S S S S S S S S S S S S
--5-0-0-0-3-0-0-0-2-0-0-0-3-0-0-0-|
----------------------------------|
----------------------------------|
----------------------------------|
----------------------------------|
----------------------------------|


  W                   W
-------------------|-------------------|
-------------------|-------------------|
-------------------|-------------------|
--2----------------|--L----------------|
--2----------------|--L----------------|
--0----------------|--L----------------|


  W                   W
-------------------|-------------------|
-------------------|-------------------|
-------------------|-------------------|
--L----------------|--L----------------|
--L----------------|--L----------------|
--L----------------|--L----------------|


  W                   W
-------------------|-------------------|
-------------------|-------------------|
--5----------------|--L----------------|
--5----------------|--L----------------|
--3----------------|--L----------------|
-------------------|-------------------|


  W                   W
-------------------|-------------------|
-------------------|-------------------|
--L----------------|--L----------------|
--L----------------|--L----------------|
--L----------------|--L----------------|
-------------------|-------------------|


  W                   W
-------------------|-------------------|
-------------------|-------------------|
-------------------|-------------------|
--2----------------|--L----------------|
--2----------------|--L----------------|
--0----------------|--L----------------|


  |--3--|  |--3--|  |--3--|  |--3--|
  E  E  E  E  E  E  E  E  E  E  E  E
--------------------------------------|
--------------------------------------|
--------------------------------------|
--------------------------------------|
--------------------------------------|
--3--3--3--3--3--3--3--3--3--3--3--3--|


  |--3--|  |--3--|  |--3--|  |--3--|
  E  E  E  E  E  E  E  E  E  E  E  E
--------------------------------------|
--------------------------------------|
--------------------------------------|
--------------------------------------|
--------------------------------------|
--3--3--3--3--3--3--3--3--3--3--3--3--|


  |--3--|  |--3--|  |--3--|  |--3--|
  E  E  E  E  E  E  E  E  E  E  E  E
--------------------------------------|
--------------------------------------|
--------------------------------------|
--------------------------------------|
--------------------------------------|
--3--3--3--3--3--3--3--3--3--3--3--3--|


  |--3--|  |--3--|  |--3--|  |--3--|
  E  E  E  E  E  E  E  E  E  E  E  E
--------------------------------------|
--------------------------------------|
--------------------------------------|
--------------------------------------|
--------------------------------------|
--3--3--3--3--3--3--3--3--3--3--3--3--|


  |--3--|  |--3--|  |--3--|  |--3--|
  E  E  E  E  E  E  E  E  E  E  E  E
--------------------------------------|
--------------------------------------|
--------------------------------------|
--------------------------------------|
--------------------------------------|
--3--3--3--3--3--3--3--3--3--3--3--3--|


  |--3--|  |--3--|  |--3--|  |--3--|
  E  E  E  E  E  E  E  E  E  E  E  E
--------------------------------------|
--------------------------------------|
--------------------------------------|
--------------------------------------|
--------------------------------------|
--3--3--3--3--3--3--3--3--3--3--3--3--|


  |--3--|  |--3--|  |--3--|  |--3--|
  E  E  E  E  E  E  E  E  E  E  E  E
--------------------------------------|
--------------------------------------|
--------------------------------------|
--------------------------------------|
--------------------------------------|
--3--3--3--3--3--3--3--3--3--3--3--3--|


  |--3--|  |--3--|  |--3--|  |--3--|
  E  E  E  E  E  E  E  E  E  E  E  E
--------------------------------------|
--------------------------------------|
--------------------------------------|
--------------------------------------|
--------------------------------------|
--3--3--3--3--3--3--3--3--3--3--3--3--|


  S S S S S S S S S S S S S S S S
----------------------------------|
----------------------------------|
----------------------------------|
----------------------------------|
----------------------------------|
--3-3-3-3-3-3-3-3-3-3-3-3-3-3-3-3-|


  S S S S S S S S S S S S S S S S
----------------------------------|
----------------------------------|
----------------------------------|
----------------------------------|
----------------------------------|
--6-6-6-6-6-6-6-6-6-6-6-6-6-6-6-6-|


  S S S S S S S S S S S S S S S S
----------------------------------|
----------------------------------|
----------------------------------|
----------------------------------|
----------------------------------|
--3-3-3-3-3-3-3-3-3-3-3-3-3-3-3-3-|


  S S S S S S S S S S S S S S S S
----------------------------------|
----------------------------------|
----------------------------------|
----------------------------------|
----------------------------------|
--6-6-6-6-6-6-6-6-6-6-6-6-6-6-6-6-|


  |--3--|  |--3--|  |--3--|  |--3--|
  E  E  E  E  E  E  E  E  E  E  E  E
--------------------------------------|
--------------------------------------|
--------------------------------------|
--------------------------------------|
--------------------------------------|
--3--3--3--3--3--3--3--3--3--3--3--3--|


  |--3--|  |--3--|  |--3--|  |--3--|
  E  E  E  E  E  E  E  E  E  E  E  E
--------------------------------------|
--------------------------------------|
--------------------------------------|
--------------------------------------|
--------------------------------------|
--6--6--6--6--6--6--6--6--6--6--6--6--|


  |--3--|  |--3--|  |--3--|  |--3--|
  E  E  E  E  E  E  E  E  E  E  E  E
--------------------------------------|
--------------------------------------|
--------------------------------------|
--------------------------------------|
--------------------------------------|
--3--3--3--3--3--3--3--3--3--3--3--3--|


  |--3--|  |--3--|  |--3--|  |--3--|
  E  E  E  E  E  E  E  E  E  E  E  E
--------------------------------------|
--------------------------------------|
--------------------------------------|
--------------------------------------|
--------------------------------------|
--1--1--1--1--1--1--1--1--1--1--1--1--|

ALEJANDRO LAUYOLA
  |--3--|  |--3--|  |--3--|  |--3--|
  E  E  E  E  E  E  E  E  E  E  E  E
--------------------------------------|
--------------------------------------|
--------------------------------------|
--------------------------------------|
--------------------------------------|
--3--3--3--3--3--3--3--3--3--3--3--3--|


  |--3--|  |--3--|  |--3--|  |--3--|
  E  E  E  E  E  E  E  E  E  E  E  E
--------------------------------------|
--------------------------------------|
--------------------------------------|
--------------------------------------|
--------------------------------------|
--3--3--3--3--3--3--3--3--3--3--3--3--|


  |--3--|  |--3--|  |--3--|  |--3--|
  E  E  E  E  E  E  E  E  E  E  E  E
--------------------------------------|
--------------------------------------|
--------------------------------------|
--------------------------------------|
--------------------------------------|
--6--6--6--6--6--6--6--6--6--6--6--6--|


  |--3--|  |--3--|  |--3--|  |--3--|
  E  E  E  E  E  E  E  E  E  E  E  E
--------------------------------------|
--------------------------------------|
--------------------------------------|
--------------------------------------|
--------------------------------------|
--6--6--6--6--6--6--6--6--6--6--6--6--|


  S S S S S S S S S S S S S S S S
----------------------------------|
----------------------------------|
----------------------------------|
----------------------------------|
----------------------------------|
--8-8-8-8-8-8-8-8-8-8-8-8-8-8-8-8-|


   S  S  S  S  S  S  S  S  S  S  S  S  S  S
---------------------------------------------
---------------------------------------------
---------------------------------------------
---------------------------------------------
---------------------------------------------
--10-10-10-10-10-10-10-10-10-10-10-10-10-10-1


   S  S  S  S  S  S  S  S  S  S  S  S  S  S
---------------------------------------------
---------------------------------------------
---------------------------------------------
---------------------------------------------
---------------------------------------------
--13-13-13-13-13-13-13-13-13-13-13-13-13-13-1


   S  S  S  S  S  S  S  S  S  S  S  S  S  S
---------------------------------------------
---------------------------------------------
---------------------------------------------
---------------------------------------------
---------------------------------------------
--15-15-15-15-15-15-15-15-15-15-15-15-15-15-1


  W                   W
-------------------|-------------------|
-------------------|-------------------|
-------------------|-------------------|
--2----------------|--L----------------|
--2----------------|--L----------------|
--0----------------|--L----------------|


  W                   W
-------------------|-------------------|
-------------------|-------------------|
-------------------|-------------------|
--L----------------|--L----------------|
--L----------------|--L----------------|
--L----------------|--L----------------|


    PH     PH     PH     PH
    Q      Q      Q      Q
------------------------------|
------------------------------|
------------------------------|
---------<>5----<>4-----------|
--<>3------------------<>5----|
------------------------------|


    PH     PH     PH     PH
    Q      Q      Q      Q
------------------------------|
------------------------------|
------------------------------|
---------<>5----<>4-----------|
--<>3------------------<>5----|
------------------------------|


  W                   W
-------------------|-------------------|
-------------------|-------------------|
-------------------|-------------------|
--2----------------|--L----------------|
--2----------------|--L----------------|
--0----------------|--L----------------|


  W                   W
-------------------|-------------------|
-------------------|-------------------|
-------------------|-------------------|
--L----------------|--L----------------|
--L----------------|--L----------------|
--L----------------|--L----------------|


    PH     PH     PH     PH
    Q      Q      Q      Q
------------------------------|
------------------------------|
------------------------------|
---------<>5----<>4-----------|
--<>3------------------<>5----|
------------------------------|


    PH     PH     PH     PH
    Q      Q      Q      Q
------------------------------|
------------------------------|
------------------------------|
---------<>5----<>4-----------|
--<>3------------------<>5----|
------------------------------|


  S S S S S S S S S S S S S S S S
----------------------------------|
----------------------------------|
----------------------------------|
----------------------------------|
----------------------------------|
--0-0-0-0-0-0-0-0-0-0-0-0-0-0-0-0-|


  S S S S S S S S S S S S S S S S
----------------------------------|
----------------------------------|
----------------------------------|
----------------------------------|
----------------------------------|
--0-0-0-0-0-0-0-0-0-0-0-0-0-0-0-0-|


  S S S S S S S S S S S S S S S S
----------------------------------|
----------------------------------|
----------------------------------|
----------------------------------|
----------------------------------|
--0-0-0-0-0-0-0-0-0-0-0-0-0-0-0-0-|


  S S S S S S S S S S S S S S S S
----------------------------------|
----------------------------------|
----------------------------------|
----------------------------------|
----------------------------------|
--0-0-0-0-0-0-0-0-0-0-0-0-0-0-0-0-|


    PH     PH     PH     PH
    Q      Q      Q      Q
------------------------------|
------------------------------|
------------------------------|
---------<>5----<>4-----------|
--<>3------------------<>5----|
------------------------------|


    PH     PH     PH     PH
    Q      Q      Q      Q
------------------------------|
------------------------------|
------------------------------|
---------<>5----<>4-----------|
--<>3------------------<>5----|
------------------------------|


  S S S S S S S S S S S S S S S S
----------------------------------|
----------------------------------|
----------------------------------|
----------------------------------|
----------------------------------|
--0-0-0-0-0-0-0-0-0-0-0-0-0-0-0-0-|


  S S S S S S S S S S S S S S S S
----------------------------------|
----------------------------------|
----------------------------------|
----------------------------------|
----------------------------------|
--0-0-0-0-0-0-0-0-0-0-0-0-0-0-0-0-|


  S S S S S S S S S S S S S S S S
----------------------------------|
----------------------------------|
----------------------------------|
----------------------------------|
----------------------------------|
--0-0-0-0-0-0-0-0-0-0-0-0-0-0-0-0-|


  S S S S S S S S S S S S S S S S
----------------------------------|
----------------------------------|
----------------------------------|
----------------------------------|
----------------------------------|
--0-0-0-0-0-0-0-0-0-0-0-0-0-0-0-0-|


    PH     PH     PH     PH
    Q      Q      Q      Q
------------------------------|
------------------------------|
------------------------------|
---------<>5----<>4-----------|
--<>3------------------<>5----|
------------------------------|


    PH     PH     PH     PH
    Q      Q      Q      Q
------------------------------|
------------------------------|
------------------------------|
---------<>5----<>4-----------|
--<>3------------------<>5----|
------------------------------|


  W                   W
-------------------|-------------------|
-------------------|-------------------|
--5----------------|--7----------------|
--5----------------|--7----------------|
--3----------------|--5----------------|
-------------------|-------------------|


  W                   W
-------------------|-------------------|
-------------------|-------------------|
-------------------|--5----------------|
--5----------------|--5----------------|
--5----------------|--3----------------|
--3----------------|-------------------|


  W                   W
-------------------|-------------------|
-------------------|-------------------|
--7----------------|--9----------------|
--7----------------|--9----------------|
--5----------------|--7----------------|
-------------------|-------------------|


  S S S S S S S S S S S S S S S S
----------------------------------|
----------------------------------|
----------------------------------|
----------------------------------|
--0-0-0-0-0-0-0-0-0-0-0-0-0-0-0-0-|
----------------------------------|


  S S S S S S S S S S S S S S S S
----------------------------------|
----------------------------------|
----------------------------------|
----------------------------------|
--2-2-2-2-2-2-2-2-2-2-2-2-2-2-2-2-|
----------------------------------|


  S S S S S S S S S S S S S S S S
----------------------------------|
----------------------------------|
----------------------------------|
----------------------------------|
--3-3-3-3-3-3-3-3-3-3-3-3-3-3-3-3-|
----------------------------------|


  E  E  E  E  E  E  E  E
--------------------------|-----|
--------------------------|-----|
--------------------------|-----|
--7--7--7--7--7--7--7--7--|-----|
--5--5--5--5--5--5--5--5--|-----|
--------------------------|-----|


  W                   W
-------------------|-------------------|
-------------------|-------------------|
-------------------|--7----------------|
--2----------------|--7----------------|
--2----------------|--5----------------|
--0----------------|-------------------|


  W                   W
-------------------|-------------------|
-------------------|-------------------|
--5----------------|-------------------|
--5----------------|--7----------------|
--3----------------|--7----------------|
-------------------|--5----------------|


  W                   W
-------------------|-------------------|
-------------------|-------------------|
-------------------|--7----------------|
--2----------------|--7----------------|
--2----------------|--5----------------|
--0----------------|-------------------|


  W                   W
-------------------|-------------------|
-------------------|-------------------|
--9----------------|--5----------------|
--9----------------|--5----------------|
--7----------------|--3----------------|
-------------------|-------------------|


  W                   W
-------------------|-------------------|
-------------------|-------------------|
-------------------|--7----------------|
--2----------------|--7----------------|
--2----------------|--5----------------|
--0----------------|-------------------|


  W                   W
-------------------|-------------------|
-------------------|-------------------|
--5----------------|-------------------|
--5----------------|--7----------------|
--3----------------|--7----------------|
-------------------|--5----------------|


  W                   W
-------------------|-------------------|
-------------------|-------------------|
-------------------|--7----------------|
--2----------------|--7----------------|
--2----------------|--5----------------|
--0----------------|-------------------|


  W                   W
-------------------|-------------------|
-------------------|-------------------|
--9----------------|--5----------------|
--9----------------|--5----------------|
--7----------------|--3----------------|
-------------------|-------------------|


   S S S S  S S S S S S S S S S S S
------------------------------------|
--12-0-0-0-10-0-0-0-8-0-0-0-7-0-0-0-|
------------------------------------|
------------------------------------|
------------------------------------|
------------------------------------|


  S S S S S S S S S S S S S S S S
----------------------------------|
--5-0-0-0-4-0-0-0-5-0-0-0-7-0-0-0-|
----------------------------------|
----------------------------------|
----------------------------------|
----------------------------------|


   S S S S  S S S S S S S S S S S S
--12-0-0-0-10-0-0-0-8-0-0-0-7-0-0-0-|
------------------------------------|
------------------------------------|
------------------------------------|
------------------------------------|
------------------------------------|


  S S S S S S S S S S S S S S S S
--5-0-0-0-3-0-0-0-2-0-0-0-3-0-0-0-|
----------------------------------|
----------------------------------|
----------------------------------|
----------------------------------|
----------------------------------|


  W                   W
-------------------|-------------------|
-------------------|-------------------|
-------------------|-------------------|
--2----------------|--L----------------|
--2----------------|--L----------------|
--0----------------|--L----------------|


  W                   W
-------------------|-------------------|
-------------------|-------------------|
-------------------|-------------------|
--L----------------|--L----------------|
--L----------------|--L----------------|
--L----------------|--L----------------|


  W                   W
-------------------|-------------------|
-------------------|-------------------|
-------------------|-------------------|
--L----------------|--L----------------|
--L----------------|--L----------------|
--L----------------|--L----------------|


  W                   W
-------------------|-------------------|
-------------------|-------------------|
-------------------|-------------------|
--L----------------|--L----------------|
--L----------------|--L----------------|
--L----------------|--L----------------|


  W                   W
-------------------|-------------------|
-------------------|-------------------|
-------------------|-------------------|
--L----------------|--L----------------|
--L----------------|--L----------------|
--L----------------|--L----------------|


  W
-------------------||
-------------------||
-------------------||
--L----------------||
--L----------------||
--L----------------||


solo


  E   S   S   S   S   S   S   S   S   S   S
---------------------------------------------
---------------------------------------------
--5b--5pb-5pb-5pb-5pb-5pb-5pb-5pb-5pb-5pb-5pb
---------------------------------------------
---------------------------------------------
---------------------------------------------


  S   S   S   S   S   S   S   S   Q      E  E
---------------------------------------------
---------------------------------------------
--5pb-5pb-5pb-5pb-5pb-5pb-5pb-5pb-5pb----L---
--------------------------------------------5
---------------------------------------------
---------------------------------------------


  |---3--|  |---3--|  |---3--|  |---3--|
  E   E  E  E   E  E  E   E  E  E   E  E
------------------------------------------|
------------------------------------------|
--5b--5-----5b--5-----5b--5-----5b--5-----|
---------5---------5---------5---------5--|
------------------------------------------|
------------------------------------------|


  |---3--|  |---3--|
  E   E  E  E   E  E  H
---------------------------------|
---------------------------------|
--5b--5-----5b--5-----5b~--------|
---------5---------5-------------|
---------------------------------|
---------------------------------|


           T           T           T
   |---3---|   |---3---|   |---3---|   |---3-
   E   E   E   E   E   E   E   E   E   E   E
---------------------------------------------
--12--14--19--12--14--19--12--14--19--12--14-
---------------------------------------------
---------------------------------------------
---------------------------------------------
---------------------------------------------

ALEJANDRO LAUYOLA
           T
   |---3---|   3   3   3              3
   E   E   E   E   E   H.             E
-----------------------------------------|
--12--14--19--12--14--17b~------------L--|
-----------------------------------------|
-----------------------------------------|
-----------------------------------------|
-----------------------------------------|


   |---3---|   |---3---|   |---3---|   |---3-
   E   E   E   E   E   E   E   E   E   E   E
---------------------------------------------
--19--17------17----------19--17------17-----
----------18------18--16----------18------18-
---------------------------------------------
---------------------------------------------
---------------------------------------------


   |---3---|   |---3---|   3
   E   E   E   E   E   E   H.
-----------------------------------------|
--19--17------17-------------------------|
----------18------18--16--18~------------|
-----------------------------------------|
-----------------------------------------|
-----------------------------------------|


  S S S S S S S S  S  S  S  S  S  S  S  S
------------------------------------------|
------------------------------------------|
--7-7-7-7-8-8-8-8-10-10-10-10-12-12-12-12-|
------------------------------------------|
------------------------------------------|
------------------------------------------|

ALEJANDRO LAUYOLA
   S  S  S  S  S  S  S  S  H
-------------------------------------|
-------------------------------------|
--14-14-14-14-15-15-15-15-17b--------|
-------------------------------------|
-------------------------------------|
-------------------------------------|

ALEJANDRO LAUYOLA
   Q      S   S   S   S  S  S  S  S  S  S  S
---------------------------------------------
---------------------------------------------
--17b----19h-20p-19p-17-15-15-15-15-14-14-14-
---------------------------------------------
---------------------------------------------
---------------------------------------------


   S  S  S  S  S  S  S  S  H
-------------------------------------|
-------------------------------------|
--12-12-12-12-------------17b--------|
--------------15-15-15-15------------|
-------------------------------------|
-------------------------------------|


   |---3---|   |---3---|   |---3---|   |---3-
   E   E   E   E   E   E   E   E   E   E   E
---------------------------------------------
---------------------------------------------
--19--20--17--19----------17--19-------------
------------------19--20----------19--20--17-
---------------------------------------------
---------------------------------------------

ALEJANDRO LAUYOLA
   |---3---|   |---3---|   3
   E   E   E   E   E   E   H.
------------------------------------------|
------------------------------------------|
------17----------------------------------|
--20------19--20--17------20b~------------|
----------------------20------------------|
------------------------------------------|


   |---3---|   |---3---|   |---3---|   |---3-
   E   E   E   E   E   E   E   E   E   E   E
---------------------------------------------
---------------------------------------------
--15--17--19--14--15--17------14--15---------
--------------------------17----------15-----
------------------------------------------18-
---------------------------------------------

ALEJANDRO LAUYOLA
   |---3---|   |---3---|  3
   E   E   E   E   E   E  H.
----------------------------------------|
----------------------------------------|
----------------------------------------|
----------------------------------------|
--15--13--12----------------------------|
--------------15--13--11--8~------------|


   |---3---|   |---3---|   |---3---|   |---3-
   E   E   E   E   E   E   E   E   E   E   E
--------------------------18--17------17-----
----------------------------------20------18-
--19--20--17--19------17---------------------
------------------20-------------------------
---------------------------------------------
---------------------------------------------


   |---3---|   |---3---|   3
   E   E   E   E   E   E   H.
-----------------------------------------|
--18--20--18--16-------------------------|
------------------19--20--17~------------|
-----------------------------------------|
-----------------------------------------|
-----------------------------------------|


   |---3---|   |---3---|   |---3---|   |---3-
   E   E   E   E   E   E   E   E   E   E   E
---------------------------------------------
--15--16--13--15--13----------15------13-----
----------------------14--15------15------15-
---------------------------------------------
---------------------------------------------
---------------------------------------------


   |---3---|   |---3---|   3       |---3--|
   E   E   E   E   E   E   Q.      Q      E
---------------------------------------------
------13-------------------------------------
--15------14--12-----------------------------
------------------15--13--12~------L---------
----------------------------------------/12--
---------------------------------------------


   |---3---|   |---3---|   |---3---|   |---3-
   E   E   E   E   E   E   E   E   E   E   E
---------------------------------------------
--15--13--11---------------------------------
--------------14--12-------------------------
----------------------15--13--12-------------
----------------------------------15--13--12-
---------------------------------------------


   S  S  S  S  S  S  S  S  S  S  S  S  Q
---------------------------------------------
-----------------------------11-13-15-16~----
--------------------10-12-14-----------------
-----------10-12-13--------------------------
--10-12-13-----------------------------------
---------------------------------------------


   S  S  S  S  S  S  S  S  S  S  S  S  S  S
--10-10-10-10-12-12-12-12-13-13-13-13-15-15-1
---------------------------------------------
---------------------------------------------
---------------------------------------------
---------------------------------------------
---------------------------------------------


   S  S  S  S  S  S  S  S  H
--17-17-17-17-18-18-18-18-18b--------|
-------------------------------------|
-------------------------------------|
-------------------------------------|
-------------------------------------|
-------------------------------------|
ALEJANDRO LAUYOLA


Duration Legend
---------------
W - whole
H - half
Q - quarter
E - 8th
S - 16th
T - 32nd
X - 64th
. - note dotted
|-n-|  - n-tuplets


Tablature Legend
----------------
L - tied note
x - dead note
g - grace note
(n) - ghost note
> - accentuded note
NH - natural harmonic
AH - artificial harmonic
TH - tapped harmonic
SH - semi harmonic
PH - pitch harmonic
h - hammer on
p - pull off
b - bend
br - bendRelease
pb - preBend
pbr - preBendRelease
brb - bendReleaseBend
n/ - tremolo bar dip
n - tremolo bar dive
-/n - tremolo bar Release up
/n - tremolo bar inverted dip
/n - tremolo bar return
-n - tremolo bar Release down
S - shift slide
s - legato slide
/ -  slide into from below or out of upwards
 -  slide into from above or out of downwards
~ - vibrato
W - wide vibrato
tr - trill
TP - tremolo picking
T - tapping
S - slap
P - pop
< - fade in
^ - brush up
v - brush down
Suggest correction
Give kudos to tab author, rate the tab!
1 2 3 4 5
comments
print report bad tab
guest
Wanna post a correction for this tab? Suggest correction