Oops, an error
Loading. Please wait.

Está Prohibido Llorar Tab

14 views 1 this week
no commentswrite comment
1 2 3 4 5
3 more votes to show rating
add to favorites
launch autoscroll
font size
0
reset
how to read this tab
guitar tuner
Autoscroll
slow
fast
+/-
esc
set tempo
stop
Help us to improve Ultimate-Guitar.com Take our survey!
×
----- acordes utilizados -----
C7: x35353
F:  133211
Dm: 557765  (000231)
C:  8AA988  (032010)
A#: 688766  (113331)
Gm: 355333
------------------------------

[intro]
      C             C7           C             C7
E-||--------------------------------------------------------
B-||------5-6--5--------5-6--5-------5-6--5--------5-6--5---
G-||----3-------3-----3------------3-------3-----3----------
D-||--5-------------5------------5-------------5------------
A-||--------------------------------------------------------
E-||--------------------------------------------------------


        F                      Dm
Aún recuerdo cuando verte era como un día festivo
           C                        A#
cuando el resto de la gente no existía para mí
           Gm                        Dm
cuando el sol nos calentaba aunque fuera el mes más frío
        F                      D#
y tu ausencia me bastaba para sentirme perdido
            A#                        C[media intro]
y me encontrabas como un niño que no sabe donde ir.

         D#                         A#
Pero el tiempo que maldigo fue cambiando tantas cosas
       F                         D#
lo que antes fueron rosas ahora sólo son olvidos.
     D#                         A#
No quiero inventar excusas, tampoco buscar testigos
      F                          D#
sólo sé lo que he perdido y quiero recuperar.
       C                       C7
Por favor no digas nada, que está prohibido llorar.

        F                       Dm
Era un martes de diciembre ese día prometido
        C                        A#
que quise volver a verte y recordarte lo que fui
       Gm                          Dm
al cruzarme en tu mirada sentí el filo de un cuchillo
       F                       D#
que mi alma atravesaba y me dejaba malherido
        A#                     C[media intro]
y recordé que tu camino ya no pasa por aquí.

     D#                      A#
Esperando la mañana de otra noche que se ha ido
        F                         D#
sólo espero que el olvido no me vuelva nunca a mirar
   D#                       A#
Y nada más que decirte que sólo soy lo que he sido
     F                           D#
un alegre triste herido de otra guerra sin final.
       C                       C7
Por favor no digas nada, que está prohibido llorar.

         F                        Dm
Las canciones y sonidos que antes tú me regalabas
       C                            A#
ahora son ruidos prohibidos que ya nunca escucharé
      Gm                      Dm
como nadie me acompaña he vendido mi cariño
      F                      D#
he tirado mi palabra y alquilado mi destino
      A#                C[media intro]
lo demás lo regalaba y nadie lo vino a buscar.

     D#                         A#
Esperando despertarme de otro sueño mal dormido
         F                     D#
ahora quiero levantarme y que todo esté en su lugar
  D#                       A#
y algo más que pedirte que antes no te he pedido
          F                         D#
y es que aún estés conmigo cuando vuelva a despertar.
       C                       C7
Por favor no digas nada, que está prohibido llorar.


[outtro]
          F                  Dm                 C                        A#
E-||----------------------------------------------6-5------------------------------
B-||--------------------------------------------------8-6-8/10-8\6-------6---------
G-||--5/7\5---------5----5/7\5-------------------------------------7\5/7---7\5/7---
D-||--------7-5---5------------7-5---5---------------------------------------------
A-||------------8------------------8---8-5-8---------------------------------------
E-||-------------------------------------------------------------------------------

                     Gm                         Dm                        F
E-||------6-------------------------------8-10--8/10---8-----------------------
B-||--6/8---8-6-4---6-4-------4--------10----------------10-8/10-8----8--------
G-||--------------5-----5\3/5---5----------------------------------10---7-10---
D-||---------------------------------------------------------------------------
A-||---------------------------------------------------------------------------
E-||---------------------------------------------------------------------------

                        D#                                  A#
E-||--------------------------10-8-----8/10-8----------------------
B-||--10-8----8-------8/10-10-----10----------10-8/10--8-----------
G-||-------10---7-10-------------------------------------10-7-10---
D-||---------------------------------------------------------------
A-||---------------------------------------------------------------
E-||---------------------------------------------------------------


                       F                            Dm                C                         A#
E-||--13/15\13---------------------------13-13\10--8/10\8------------------8---10/13-12--10--8-8/10--8---
B-||--13/15\13---8/10--8-----------------13-13\10--8/10\8-----------8-8/10-------------------------------
G-||---------------------10-7-10----------------------------------10-------------------------------------
D-||------------------------------------------------------------10---------------------------------------
A-||-----------------------------------------------------------------------------------------------------
E-||-----------------------------------------------------------------------------------------------------


                     Gm                  Dm                F
E-||-----------------------------------------------------------------------------------
B-||----10-8\6---6-8-8/10--11-10-8----10-8---------------------------------------------
G-||-------------------------------10------10--7--------7-10-10--10------7-10-10--10---
D-||--10---------------------------------------------10---------------10---------------
A-||-----------------------------------------------------------------------------------
E-||-----------------------------------------------------------------------------------

                 D#                             A#
E-||-------------------------------------------------
B-||--8/10\8----------------8-8/10-8-----------------
G-||---------10--8-8------8----------10----7-10-10---
D-||-----------------10-8---------------10-----------
A-||-------------------------------------------------
E-||-------------------------------------------------

                            F                                 Dm                     C
E-||------8-10--12/13-12--10-8---------------------------------------------------------------
B-||--8/10-------------------------------------------10---------------8/10-8----8--------8---
G-||------------------------------------10-10---12-10--10-12--10-------------10---7-10-------
D-||------------------------------10/12---------------------12-------------------------------
A-||-----------------------------------------------------------------------------------------
E-||-----------------------------------------------------------------------------------------

                           A#
E-||----------8----------------------------------------
B-||----8/10----10-8-------8-------8-------------------
G-||-----------------10-7----10-7----10--7\5/7--10-7---
D-||---------------------------------------------------
A-||---------------------------------------------------
E-||---------------------------------------------------

              Gm                        Dm                     F        D#      A#
E-||--------8-8--10-----8/10-8----------------------------...
B-||---8/10--------------------10-8----8/10-8-------------...
G-||--------------------------------10--------10-7----7---...
D-||-----------------------------------------------10-----...
A-||------------------------------------------------------...
E-||------------------------------------------------------...


###-------------------------------------###
###  Tablatura de: Enrique Moraño       ###
###                emorano@  ###
###  para ATAME  ENE-2005  ###
###-------------------------------------###
Suggest correction
Give kudos to tab author, rate the tab!
1 2 3 4 5
comments
print report bad tab
guest
You may want to rate the tab now too:
select rating
Wanna post a correction for this tab? Suggest correction