Oops, an error
Loading. Please wait.

Estoy Aquí Tab

version 2
version 2

Whole song

Interactive

by Shakira
104 views 1 this week
no commentswrite comment
1 2 3 4 5
3 more votes to show rating
add to favorites
launch autoscroll
font size
0
reset
how to read this tab
guitar tuner
Autoscroll
slow
fast
+/-
esc
set tempo
stop
Ok everyone this is the tab for the unplugged version im not sure if it matches up with
the other Album or not but here it is anyways.


There is just bass and some keyboard and such for a while and then you hear the guitar 
come in with these chords	
e------------------------------------------------------------------------------------
B------------------------------------------------------------------------------------
G---7-------7---------5-----4----3----5---------------7---------7-7-7-7-7-7-7-7-7-7--
D---7---------7-------5-----4----3----5---------------7---------7-7-7-7-7-7-7-7-7-7--
A---5-----------5-----3-----2----1----3---------------5---------5-5-5-5-5-5-5-5-5-5--
E------------------------------------------------------------------------------------


then you hold out this chord on the slow piano part before the chorus and then here is the
chorus
e------------------------------------------------------------------------------------
B---------------7-7-7-7-7-7-8-10-10-10-10-10-10-7-8-8-8-8-8-8-7-6-6-6-5-5-5-5--------
G----7-------------------------------------------------------------------------------
D----7-------------------------------------------------------------------------------
A----5-------------------------------------------------------------------------------
E------------------------------------------------------------------------------------
then there is like this lil funky sounding bass and piano part and here is what the guitar
is playin
e------------------------------------------------------------------------------------
B-----6~~-------------------5~~------------------6~~------------------------5~~------
G------------------------------------------------------------------------------------
D------------------------------------------------------------------------------------
A------------------------------------------------------------------------------------
E------------------------------------------------------------------------------------

then the chorus u play this six times at the regular speed
e------------------------------------------------------------------------------------
B----------7-7-7-7-7-7-8-10-10-10-10-10-10-7-8-8-8-8-8-8-7-6-6-6-5-5-5-5-------------
G------------------------------------------------------------------------------------
D------------------------------------------------------------------------------------
A------------------------------------------------------------------------------------
E------------------------------------------------------------------------------------


e------------------------------------------------------------------------------------
B----------7-7-7-7-7-7-8-10-10-10-10-10-10-7-8-8-8-8-8-8-7-6-6-6-5-5-5-5-------------
G------------------------------------------------------------------------------------
D------------------------------------------------------------------------------------
A------------------------------------------------------------------------------------
E------------------------------------------------------------------------------------

e------------------------------------------------------------------------------------
B----------7-7-7-7-7-7-8-10-10-10-10-10-10-7-8-8-8-8-8-8-7-6-6-6-5-5-5-5-------------
G------------------------------------------------------------------------------------
D------------------------------------------------------------------------------------
A------------------------------------------------------------------------------------
E------------------------------------------------------------------------------------

e------------------------------------------------------------------------------------
B----------7-7-7-7-7-7-8-10-10-10-10-10-10-7-8-8-8-8-8-8-7-6-6-6-5-5-5-5-------------
G------------------------------------------------------------------------------------
D------------------------------------------------------------------------------------
A------------------------------------------------------------------------------------
E------------------------------------------------------------------------------------

e------------------------------------------------------------------------------------
B----------7-7-7-7-7-7-8-10-10-10-10-10-10-7-8-8-8-8-8-8-7-6-6-6-5-5-5-5-------------
G------------------------------------------------------------------------------------
D------------------------------------------------------------------------------------
A------------------------------------------------------------------------------------
E------------------------------------------------------------------------------------

e------------------------------------------------------------------------------------
B----------7-7-7-7-7-7-8-10-10-10-10-10-10-7-8-8-8-8-8-8-7-6-6-6-5-5-5-5-------------
G------------------------------------------------------------------------------------
D------------------------------------------------------------------------------------
A------------------------------------------------------------------------------------
E------------------------------------------------------------------------------------

then you slow it down on the 7th time
slow it down and play it 4 more times and then your done


Questions Comments Requests to: 242chris@

Oh and by the way ive been forgetting to put this but if you have ICQ my number is
# 78227549 this is probably the easiest way to contact me.
Suggest correction
Give kudos to tab author, rate the tab!
1 2 3 4 5
comments
print report bad tab
guest
You may want to rate the tab now too:
select rating
Wanna post a correction for this tab? Suggest correction