Oops, an error
Loading. Please wait.

Kilómetros Tab

version 3
version 3

Whole song

Interactive

64 views 1 this week
no commentswrite comment
1 2 3 4 5
3 more votes to show rating
add to favorites
launch autoscroll
font size
0
reset
how to read this tab
guitar tuner
×
Best way to learn
"Kilómetros"
Autoscroll
slow
fast
+/-
esc
set tempo
stop
Artista: Sin Bandera
Cancion: Kilometros
Album: N/A
Trancrita por: Camilo Fierro
Tabbed By Bomber


Esta cancion me la dedico mi novia y pues yo se la vuelvo a dedicar pues si no fuera por
ella, no me tomaria la molestia de transcribir el solo que me tomo 4 horas. Te amo katty
con toda mi alma, corazon y fuerzas. Gracias x todo. Te amo.


Para el Solo:

/  Slide hacia arriba
\  Slide hacia abajo hasta el traste 0
~  Deja que suene la cuerda o vibrato
h  Hammer-On
p  Pull-Off
B  Sube LA cuerda(Bend) hasta el tono del traste indicado despues de la 'b'
r  suelta la cuerda de la posicion bend hacia el tono del traste indicado despues de la 'r'


A
  A varios cientos de kilometros
D
  Puede tu voz darme calor igual que un sol
F#m
  Y siento como un cambio armonico
Bm7                     E
  Va componiendo una cancion en mi interior


A
  Se que seguir no suena logico
D
  Pero no olvido tu perfume magico
F#m
  Y en nuestro encuentro telefonico
Bm7                           E
  Me he dado cuenta que estoy loco por ti


A             D
  Que todo el mundo cabe en el telefono
F#m             Bm7              E
  Que no hay distancias grandes para nuestro amor
D                C#m7              G
  Que todo es perfecto, Cuando te siento
      Bm7            E7            A  
  Tan cerca aunque estes tan lejos


A
  A varios cientos de kilómetros
D
  Tiene un secreto que decirte mi dolor
F#m
  En cuanto cuelgues el teléfono
Bm7                   E
  Se quedará pensando mi corazón.


A             D
  Que todo el mundo cabe en el telefono
F#m             Bm7              E
  Que no hay distancias grandes para nuestro amor
D                C#m7              G
  Que todo es perfecto, Cuando te siento
      Bm7            E7            A  
  Tan cerca aunque estes tan lejos


Solo: Este es el primer solo que saco y pues como no lo he visto por ninguna parte, decidi
transcribirlo y estoy un 95% de que esta completamente bien.
Esto es por mi novia a quien amo con todo mi corazon y fuerzas. Aqui va:


e|-------------------------------------------------------------------------------|
B|-------------------------------------------------------------------------------|
G|----------14/16-14~~\------------14/16-13--13-14-13----------------------------|
D|-------14---------------------14--------------------16-14~~\-------------------|
A|-14/16------------------14/16--------------------------------------------------|
E|-------------------------------------------------------------------------------|

e|-------------------------------------------------------------------------------|
B|----------15b17-15---15-14-----------------------------------------------------|
G|-------14------------------14---------------------11-13h14-13h14-13-14-13\-----|
D|-12/14------------------------14~~~14\---11h12h14------------------------------|
A|-------------------------------------------------------------------------------|
E|-------------------------------------------------------------------------------|

e|-------------------------12-12/14~~14\--------14----16----17b19r17-17-16-------|
B|----------------12-14-15----------------11/14----14----14----------------17-14-|
G|-------11-13-14----------------------------------------------------------------|
D|-12/14-------------------------------------------------------------------------|
A|-------------------------------------------------------------------------------|
E|-------------------------------------------------------------------------------|

e|----------------------------------------------------------------------------14-|
B|-10/14-15-14-12-14p12-------------------------------12-14-15-14-12-14-15-17----|
G|----------------------14----14~~14\--------11-13-14----------------------------|
D|-------------------------14----------12-14-------------------------------------|
A|-------------------------------------------------------------------------------|
E|-------------------------------------------------------------------------------|

e|-17-17/19-17\--------17----19----21-21p19p17~~~~~~~~~----|
B|---------------15/17----17----17-------------------------|
G|---------------------------------------------------------|
D|---------------------------------------------------------|
A|---------------------------------------------------------|
E|---------------------------------------------------------|


A             D
  Que todo el mundo cabe en el telefono
F#m             Bm7              E
  Que no hay distancias grandes para nuestro amor
D                C#m7              G
  Que todo es perfecto, Cuando te siento
      Bm7            E7            A  
  Tan cerca aunque estes tan lejos


Eso es todo y como siempre para mi novia Katty. Te amo mucho


Comentarios, sugerencias o correcciones a musicbomber@
Suggest correction
Give kudos to tab author, rate the tab!
1 2 3 4 5
comments
print report bad tab
guest
You may want to rate the tab now too:
select rating
Wanna post a correction for this tab? Suggest correction