Oops, an error
Loading. Please wait.

Si Tu No Estas Aquí Tab

version 4
version 4

Whole song

Interactive

16 views 1 this week
no commentswrite comment
1 2 3 4 5
3 more votes to show rating
add to favorites
launch autoscroll
font size
0
reset
how to read this tab
guitar tuner
Autoscroll
slow
fast
+/-
esc
set tempo
stop
Help us to improve Ultimate-Guitar.com Take our survey!
×
ESTA CANCION SE LA DEDICO A MI PEQUEÑA
MARIA DE LOS ANGELES....
NO ME DEJES NUNCA MI AMOR NO SABRIA ESTAR SIN TI.

TITULO:          Si tu no estas aqui
ARTISTA:         SIN BANDERA
TRANSCRITO POR:  FRANCO SANTIAGO SUAREZ AJILA [franksua_2685@
FECHA:           Jueves 16 de Septiembre de 2010
PROCEDENCIA:     SANTA ROSA-MACHALA-ECUADOR

BUENO YA QUE NO SE HABIA HECHO NADA POR ESTA ROLA AHORA
YO LA HE MEJORADO COMO ES
ASI QUE AHI VA ........

-INTRO:
  C         Em/G      F              C      Em/G             F
e-----0-----3---3--------------0-1---3------3-----3----7h8-5---------|
B-1h3----1----3---3-0-1---1----------3--1------3---------------------|
G-------0-------------2--2-------------0-------0------0----------2---|
D-----------------2-2---3----------------------------2----------3----|
A-----3-------2----------------0-1---3---------2---------------3-----|
E---------------------1---------------------------------------1------|


    No  quiero estar sin ti           si tu no estas aquí
  C      Em             F                G
e--------------------------------1------------3------------------------|
B----1--------0-------------1------1---------3-3-----------------------|
G---0--------0-------------2---2------------0---0----------------------|
D--2--------2-------------3----------------0-----0---------------------|
A-3--------------------------------------------------------------------|
E---------0--------------1----------------3----------------------------|

 me sobra el aire
     C
e------------------3-3p1-------------------|
B-----1------------3-3p1-------------------|
G----0-------------------------------------|
D---2--------------------------------------|
A--3-----------------------0-2-3-----------|
E------------------------------------------|

       Em         F
no quiero estar asiii
    G                       C
si tú no estás la gente se hace nadie

                Em      F
si tu no estas aquí no seee
G                      C
qué diablos hago amándote
 Em                  F
si tu no estas aquí sabrás
G
  que Dios no va a entender porque te vas

C       Em      F
  no quiero estar sin ti
G                      C
si tu no estas aquí me falta el sueño
      Em        F
no quiero andar así
   G                    C
latiendo un corazón de amor sin dueño

Em                        F
  si tu no estas aquí no se
     G                 C
qué diablos hago amándote
    Em            C      F
si tu no estas aquí sabrás
G                                    F
que Dios no va a entender porque te vas

 C                             Em
derramare mis sueños si algún día no te tengo
F                     G         C
 lo más grande se hará lo más pequeño
 C                                      F
paseare en un cielo sin estrellas esta vez
   Dm                    G       Em              A7
tratando de entender quien hizo un infierno el Paraíso
F             Dm          C
no te vayas nunca porque no
Em              F
no puedo estar sin ti
    G
si tu no estas aquí
     C
Me quema el aire

    Em                  F
si tu no estas aquí sabrás
     G                  F             FAdd9
que Dios no va a entender porque te vas     eeeehe eeeeee

-INTRO:
  C         Em/G      F              C      Em/G             F
e-----0-----3---3--------------0-1---3------3-----3----7h8-5---------|
B-1h3----1----3---3-0-1---1----------3--1------3---------------------|
G-------0-------------2--2-------------0-------0------0----------2---|
D-----------------2-2---3----------------------------2----------3----|
A-----3-------2----------------0-1---3---------2---------------3-----|
E---------------------1---------------------------------------1------|


                       C
Si tu no estas... aquiii


FIJENSE BIEN DONDE CAEN LAS NOTAS LAS VERSIONES ANTERIORES ESTABAN MAL
ESCUCHEN BIEN ESTA
OJALA LES SALGA AHÍ NOS VEMOS .........
Suggest correction
Give kudos to tab author, rate the tab!
1 2 3 4 5
comments
print report bad tab
guest
You may want to rate the tab now too:
select rating
Wanna post a correction for this tab? Suggest correction