Oops, an error
Loading. Please wait.

Sólo Tab

version 2
version 2

Whole song

13 views 3 this week
no commentswrite comment
1 2 3 4 5
3 more votes to show rating
add to favorites
launch autoscroll
font size
0
reset
how to read this tab
guitar tuner
Autoscroll
slow
fast
+/-
esc
set tempo
stop
Help us to improve Ultimate-Guitar.com Take our survey!
×
esta si es muy facil
///////////////////
de sin bandera- otro exito
love/maria-eduarda
notas faciles . son casi las mas exactas.
cusco
brilla
...
PIQUE MAS ABAJO>>>>>>>>
notas de la cancion:
  ..    sb  Dm7   Gm7   F    Cm7    C11   Cm
e ------1----1-----3----1-----3------1-----3
A ------3----1-----6----1-----4------3-----4
D ------3----2-----3----2-----3------3-----5
G ------3----0-----5----3-----5------0-----5
B ------0----x-----5----3-----0------3-----0
E ------x----x-----x----x-----x------x-----x

PIQUE MAS ABAJO>>>>>>>>
PIQUE MAS ABAJO>>>>>>>>


 sb
Quiero decirte tan solo
 Dm7
que me he quedado tan solo
 Gm7                     F
que voy recorriendo el espejo,
              Cm7
buscando tus ojos
      C11
Tan solo...

>>>>>>>>>>>>>>>>>>>>>>>


(mismas notas)
Quiero decirte tan solo,
que me he quedado tan solo
ue paso las horas vacias
.... mirando tus fotos
tan solo....


  Gm7         Dm7
Y si el mundo da una vuelta
  Cm7         C11
y pasas por aqui,
  Gm7           Dm7
no te extraño encontrarme deshecho,
Cm7             sb
que va a ser de mi.
Gm7             Dm7
Como tu yo tambien soy humano
Cm7               F
y me duele estar solo.


(CORO)
 Gm7    Cm
Solo, solo, solo.
 Gm7    F
Solo solo.
 Gm7    Cm
Solo, solo, solo.
 F    sb
Tan solo.


>>>>>>>>mismas>notas>>>>

Quiero decirte tan solo,
que aunque me encuentre tan solo,
que hoy cuando salga a la calle
no va a notar nadie ...que lloro
y aunque el dolor es espeso
se diluirá con un beso,
que me demuestre que
tu no eras mucho mas que eso.
Tan solo.

Y si el mundo da otra vuelta
y te devuelve aquí,
no te extrañe encontrarme de espaldas
y alguien frente a mi.
Como tu yo también soy humano
y no quiero estar solo.


(CORO)
 Gm7    Cm
Solo, solo, solo.
 Gm7    F
Solo solo.
 Gm7    Cm
Solo, solo, solo.
 F    sb
Tan solo...

>>>>>>>>>>>>>>>>>>>>>>>>>>>>>>>>>>>>>>>>>

e |----------------3--6-5-3-------------------------|
B |-333333-----3-3--------------3-4-----------------|
G |--------5-3--------------3-----------------------|
D |-------------------------------------------------|
A |-------------------------------------------------|
E |-------------------------------------------------|

e |-------------------------------------------------|
B |-3-3---444-----44--3----------44444--3-----------|
G |-----------88----------5-3---------------5-3-----|
D |-------------------------------------------------|
A |-------------------------------------------------|
E |-------------------------------------------------|

e |---------------3--5-6-8--10---11-11--10---8--6-5-|
B |---------3-4-6-----------------------------------|
G |--3-3--5-----------------------------------------|
D |-------------------------------------------------|
A |-------------------------------------------------|
E |-------------------------------------------------|

e |--6-5---------------|
B |---------8-6-8------|
G |--------------------|
D |--------------------|
A |--------------------|
E |--------------------|


(CORO)
 Gm7    Cm
Solo, solo, solo.

e |--6--------------|
B |-8---6--8-7------|


 Gm7    F
Solo solo.
 Gm7    Cm
Solo, solo, solo.
 F    sb
Tan solo....
Suggest correction
Give kudos to tab author, rate the tab!
1 2 3 4 5
comments
print report bad tab
guest
You may want to rate the tab now too:
select rating
Wanna post a correction for this tab? Suggest correction