Oops, an error
Loading. Please wait.

Tócame Tab

74 views 1 this week
no commentswrite comment
1 2 3 4 5
3 more votes to show rating
add to favorites
launch autoscroll
font size
0
reset
how to read this tab
guitar tuner
×
Best way to learn
"Tócame"
Autoscroll
slow
fast
+/-
esc
set tempo
stop
Hola a todos!!! Soy migue, subo este tema porque creo merece
Tener una versión completa con intro y solo ya que para mí
Es uno de los mejores temas de Sin Bandera y las demas
transcripsiones estan un poco incompletas y erradas
(la cancion empieza en DO!!!) escuchenla bien y van a ver...

(Abajo dejo recomendaciones? léanlas!!!)

INTRO: (C B C#m B A G#m F#m B7)

Tab INTRO: (es el arreglo del piano)

            C                            B
e--------7--8---8---8---||--8--10--8-----7---7---7---7----
B--9--10----8---8---8---||-----------10--7---7---7---7----
G-----------9---9---9---||---------------8---8---8---8----
D-----------10--10--10--||---------------9---9---9---9----
A-----------10--10--10--||---------------9---9---9---9----
E-----------8---8---8---||---------------7---7---7---7----

  C#m       B        A      G#m              F#m     B7
e--9---9----7---7----5---5---4-----4--5--4----2---||--7---
B--9--------7--------5-------4-------------5--2---||--7---
G--9--------8--------6-------4----------------2---||--8---
D--11-------9--------7-------6----------------4---||--7---
A--11-------9--------7-------6----------------4---||--9---
E--9--------7--------5-------4----------------2---||--7---


    C                          B
Si ves que me he alejado de mí mismo
                    C#m                       A
y que no me he dado cuenta que me atrapa el egoísmo
              B               B7             G#m
y camino sin fijarme hacia el borde de un abismo
                       A              G#m       F#m
si algún día me ves dormido y no he podido despertar


    C                             B
Si ves que estoy perdiendo los detalles
                  C#m                        A
y que avanzo sin mirar cuando camino por la calle
                       B         B7           G#m
porque estoy muy preocupado para que nada me falle
                     A         G#m       F#m
Y deje de hacer las cosas solamente por amar


E        B   D      A
 No me dejes continuar...
E      B     A
 hazme regresar...


    D                      A
Tócame, para unirme con el mundo
                 Bm                  A
para respirar profundo solamente tócame
    D                          A
Tócame, para estar de nuevo en casa
                    Bm
con tus manos se me pasa todo el miedo
    D   E       F#m     E    D    E
tócame?     Tócameeeeeeee


    C                     B
Si ves que no sonrío fácilmente
                    C#m                      A
Porque ahora me preocupa lo que me era indiferente
                   B            B7            G#m
si la sombra del futuro esta nublando mi presente
                     A          G#m         F#m
y las trampas de mi mente no me dejan escapar


E         B  D      A
 No me dejes continuar...
E      B      A
 hazme regresar...


    D                       A
Tócame, para unirme con el mundo
                  Bm                 A
para respirar profundo solamente tócame
    D                          A
Tócame, para estar de nuevo en casa
                     Bm                   D      E
con tus manos se me pasa todo el miedo tocameeee
    F#m
Tócame


Progresión
del solo:
         F#m E Bm A
         F#m E Bm D E

SOLO:

  F#m                  E                            Bm
e-----------------------------------------------------------
B--9~~--9-9h10--10-----9~~--9-9h10--------------------------
G------------------9~~-------------9~~----9h11h9------------
D------------------------------------------------11/7~~-----
A-----------------------------------------------------------
E-----------------------------------------------------------

                A                    F#m
e-----------------------------------------------------------
B-------------------------------------9~-9-9h10--10---------
G------------------------9pm-9h11h9~~---------------9~~-----
D------9--9/11--9~~--9h11-----------------------------------
A--9h7------------------------------------------------------
E-----------------------------------------------------------

   E                    Bm                         D
e----------------------------(12)---------------------------
B--9~~-9-9h10--------10-12Fb~~~~~12Fb-12h14h12--10-12-10--10
G------------9~~-9/11-----------------------------------11--
D-----------------------------------------------------------
A-----------------------------------------------------------
E-----------------------------------------------------------

      E
e-----------------------------------------------------------
B-----------------------------------------------------------
G------9--11--9---------------------------------------------
D-9/11----------11------------------------------------------
A-----------------------------------------------------------
E-----------------------------------------------------------


    D                       A
Tócame, para unirme con el mundo
                  Bm                 A
para respirar profundo solamente tócame
    D                          A
Tócame, para estar de nuevo en casa
                     Bm                   D     E
con tus manos se me pasa todo el miedo tocameeee

        F#m                    E
Tocameeeeeee [aaaaaaahhhhhhh]   [aaaaaaaaahhhhhh]
D           A               F#m
 (Aaaaaahhhhhh) (oooohhhhhhhhh) (aaaaahhhhhhh)
E                        D      Dm          A
 [aaaaaahhhhhh] (ooohhhhhhh)        Tócame?

Simbolos en las tabs:

Fb: Full bend o estirada completa
H: Hammer o martillar la cuerda
~: vibrato
/: deslizar


Bueno esta última parte la hice así para que se ubiquen los
Cambios de acordes siguiendo el coro que van haciendo Leonel
Y Noel en el final de la canción. Y el solo es fácil, solo
Escuchen bien la duración de la estirada para hacerla igual
Es una increíble canción que conecta muchas sensaciones así
Que disfrútenla!!! Cualquier comentario o duda escríbanme
A migspider007@ o Migue Hidalgo en Facebook, ahí
Les respondo seguro!!! dedicado a los pitopisss!! jejeje!!
Suggest correction
Give kudos to tab author, rate the tab!
1 2 3 4 5
comments
print report bad tab
guest
You may want to rate the tab now too:
select rating
Wanna post a correction for this tab? Suggest correction