Oops, an error
Loading. Please wait.

Observándonos Satélites Bass

46 views 3 this week
no commentswrite comment
1 2 3 4 5
3 more votes to show rating
add to favorites
×
Save as Personal and add changes to this tab that will be seen only by you. Learn more ›
×
You can save this tab as Personal to edit and correct it or add notes. All changes will be seen only by you. Learn more »
save as personal
new!
launch autoscroll
font size
0
reset
guitar tuner
Autoscroll
slow
fast
+/-
esc
set tempo
stop
Empieza con el bajo, si lo tocan asi como B/D y E7 suena mucho mas
lindo y completo.

g----7---7---7-----6_7-----
D----7---6---7-----5_6----- (X2)
A-------------4-5----------
E--7---0---7-----00--------

0:13
Verso 1

g----7---7---7-----6_7-----
D----7---6---7-----5_6----- (X4)
A-------------4-5----------
E--7---0---7-----00--------

"Fuera, fuera, fuera de mi orbita, apaguen ese monitor
fuera, fuera, fuera de la atmosfera es como me siento mejor
Dejenme, dejenme, retiren el bloque
Dejenme, sueltenme, quiero dar un paseo..."


0:42
Estribillo

g-------------6_7---6_7---------------------------------------
D-------------5_6---5_6---------------------------------------
A--5----5----------------5----5----------------------------7--
E---5-7--5--0-----0-------5-7--7-5--4_5_4---5-7---5-4---5-----

"Si a nuestro alrededor Satélites, satélites
si observandonos.. ohuu"


1:03

g----7---7---7-----6_7-----
D----7---6---7-----5_6----- (X2)
A-------------4-5----------
E--7---0---7-----00--------


1:16
Verso 2

g----7---7---7-----6_7-----
D----7---6---7-----5_6----- (X2)
A-------------4-5----------
E--7---0---7-----00--------

"Foto, fotos, fotos de tu cama vigilan cada sensación
Las calles peligran, los bares se cierran, cuidado con la colición."


1:30
Estribillo

g-------------6_7---6_7---------------------------------------
D-------------5_6---5_6---------------------------------------
A--5----5----------------5----5----------------------------7--
E---5-7--5--0-----0-------5-7--7-5--4_5_4---5-7---5-4---5-----

"Si a nuestro alrededor Satélites, satélites
si observandonos.. ohuu"


1:51

Slap solo del Bajo

g-------7_9-7_9-------------------------------------7_9-7_9-----
D------------------0_2-0_2-----0-X-----5_7-0_2------------------
A---------------------------------------------------------------
E--5-0-X-------0-00-------0-00----0-00---------0-00--------0-00-


g--9-9/-----7_9-7_9-------
D-------------------------
A-------------------------
E------0-00---------0-00--


2:06
Verso

g----7---7---7-----6_7-----
D----7---6---7-----5_6----- (X2)
A-------------4-5----------
E--7---0---7-----00--------

"Fuera, fuera, fuera de mi orbita, apaguen ese monitor
fuera, fuera, fuera de la atmosfera es como me siento mejor


2:20
Estribillo

g-------------6_7---6_7-------------6_7---6_7---
D-------------5_6---5_6-------------5_6---5_6---
A--5----5----------------5----5-----------------
E---5-7--5--0-----0-------5-7--5--0-----0-------

"Si a nuestro alrededor Satélites, satélites

g-------------6_7---6_7---------------------------------------
D-------------5_6---5_6---------------------------------------
A--5----5----------------5----5----------------------------7--
E---5-7--5--0-----0-------5-7--7-5--4_5_4---5-7---5-4---5--0--

si observandonos.. ohuu"


Con eso termina la canción, a escuchar bien para entender y si hay
errores ver q se puede hacer para acomodarlo....

Mariano Bria
Jesus Maria, Córdoba, Argentina
7:44 pm - Viernes 27 de Marzo de 2009
MARIANOROCKEN@
Suggest correction
Give kudos to tab author, rate the tab!
1 2 3 4 5
comments
print report bad tab
guest
Wanna post a correction for this tab? Suggest correction