Oops, an error
Loading. Please wait.

Prófugos Tab

version 3
version 3

Whole song

Interactive

119 views 1 this week
no commentswrite comment
1 2 3 4 5
3 more votes to show rating
add to favorites
launch autoscroll
font size
0
reset
how to read this tab
guitar tuner
Autoscroll
slow
fast
+/-
esc
set tempo
stop
Help us to improve Ultimate-Guitar.com Take our survey!
×
La mejor cancion de Soda para miii dedicado a vos amigaza:P.P


INTRO:

E/---2-/--------------------------      -----------------------/
B/---2-/--------------------------      -----------------------/
G/---4-/-------------------------- (2)  -----------6-4---4-----/ (2)
D/---4-/---------------6--4---4---      --5-4---4------5---7---/
A/-----/-----5-4---4--------5---7-      -0----7---7------------/
E/-----/--0-----7---7-------------      -----------------------/

VERSO:
     G9                      D     Em                                 Bm
e/---0-----------------------5--5---0---------12/14------------------7--/
B/---10----------------------7--5---10----10-------------------------7--/
G/---11----------------------7--7---11-------------------------------7--/
D/---9-----------------------7--7---9--------------------------------9--/
A/---10----------------------5--5---10-------------------------------9--/
E/---x-----------------------x--x---0--------------------------------7--/
        somos complices los 2         al menos se que huyo porque amo
      como un efecto residual         yo siempre tomare el desvio

   G9                                 D
e/------------------------------------5---5-----------------------------/
B/------10---------10--8-7-5----------7---5-----------------------------/
G/----11---------11-------------------7---7-----------------------------/
D/---9--------------------------------7---7-----------------------------/
A/-10---------------------------------5---5-----------------------------/
E/------------------------------------x---x-----------------------------/
          necesito          distension
          tus ojos  nunca mentiran
   Em                    F#sus
e/-0----------------------7---------------------------------/
B/-10---------------------7---------------------------------/
G/-11---------------------6---------------------------------/
D/-9----------------------4---------------------------------/
A/-10---------------------x---------------------------------/
E/-0----------------------x---------------------------------/
      estar asi despierto   es un delirio de condenado
     pero ese ruido blanco  es una alarma en mis oidos

  intro, verso


CORO:
    D          Am       Em              Bm
e/--5----------7---------7--------------7-------------------------------/
B/--7----------5---------8--------------7-------------------------------/
G/--7----------5---------9--------------7-------------------------------/
D/--7----------7---------9--------------9-------------------------------/
A/--5----------7---------7--------------9-------------------------------/
E/--x----------5---------x--------------7-------------------------------/
      no seas tan cruel     no busques mas pretextos

   D         Am          Em                 G    Cmaj7
e/--5---------7----------7------------------7-----7---------------------/
B/--7---------5----------8------------------8-----8---------------------/
G/--7---------5----------9------------------7-----10--------------------/
D/--7---------7----------9------------------9-----11--------------------/
A/--5---------7----------7------------------10--------------------------/
E/--x---------5----------x------------------x---------------------------/
      no seas tan cruel     siempre seremos profugos


e/----------------------------------------------------------------------/
B/-------7--------7----7-------7----7-------7----7-------7--------------/
G/---------9----9---9----9---9---9----9---9---9----9---9---9------------/
D/-----------9-------------9------------7------------7------------------/
A/----------------------------------------------------------------------/
E/----------------------------------------------------------------------/
    los dos


intro,verso, coro


SOLO:
e/-------6/15--13----------------------------10-8--------------/
B/-------6/15-------------------------------8-----11-10--------/
G/------------------0-3-0-0-0-0-0-3-0-0----------------10------/
D/--------------------------------------3~---------------10~---/
A/--7----------------------------------------------------------/
E/-------------------------------------------------------------/

e/---------------------------------6-6-6--7-7-8----------------/
B/---------------------------------3-3-3--4-4-5----------------/
G/--0-3-2-0-2-0------------0-2-3-------------------------------/
D/-------------3-----0-2-3-------------------------------------/
A/-------------------------------------------------------------/
E/-------------------------------------------------------------/


 intro,luego..

     D                          Am
e/---------------------------------7----------/
B/-------7-----------------------5------------/
G/-----7-----------------------5--------------/
D/---7----------------------------------------/
A/--------------------------------------------/
E/--------------------------------------------/
   ven...       no seas tan   cruel...(sigue coro)

FINAL:
    Em                G             D    Am  Em
e/--7-----------------7----10--7----5----7---7-------------------/
B/--8-----------------8----8---8----7----5---8-------------------/
G/--9-----------------7----7---7----7----5---9-------------------/
D/--9-----------------9----9---9----7----7---9-------------------/
A/--7-----------------10------------5----7---7-------------------/
E/--------------------x-------------x----5---x-------------------/
  ....siempre seremos pro - fu    -  gos

    Gmaj7           Cmaj7  Gmaj7 Cmaj7
e/---7---------------7-------7----7----/
B/---7---------------8-------7----8----/
G/---7---------------9-------7----9----/ etc.........
D/---9---------------10------9----10---/
A/---10----------------------10--------/
E/---x-----------------------x---------/
        siempre seremos....

Obs- (~) representa al uso del vibrato de la guitarra.
Suggest correction
Give kudos to tab author, rate the tab!
1 2 3 4 5
comments
print report bad tab
guest
You may want to rate the tab now too:
select rating
Wanna post a correction for this tab? Suggest correction