Oops, an error
Loading. Please wait.

Creeré Tab

by Sonohra
61 views 1 this week
no commentswrite comment
1 2 3 4 5
3 more votes to show rating
add to favorites
×
Save as Personal and add changes to this tab that will be seen only by you. Learn more ›
×
You can save this tab as Personal to edit and correct it or add notes. All changes will be seen only by you. Learn more »
save as personal
new!
launch autoscroll
font size
0
reset
how to read this tab
guitar tuner
Autoscroll
slow
fast
+/-
esc
set tempo
stop
(bueno este no es exactamente el intro, ps entonces la hubiera
colocado como tablatura, pero búsquenle el tiempo, y funciona
bastante bn)

e------------------------------------------------------------
B---------------------------------------5-3-3h5p33-0-----3-0-
G-------0----0-2---0-2-4-4--2-4--7-7-----------------2-0-----
D---2-4----4-----4-------------------------------------------
A--2---------------------------------------------------------
E-0----------------------------------------------------------

(el primer verso va arpegiado, háganlo como quieran pero suena muy
bien asi)

e----------0-----------------0--------
B------0-----0---0-------1-----1---0--
G----0---0-----0-------0---0-----0----
D-------------------------------------
A--------------------3----------------
E--0----------------------------------

Y asi en todo el primer verso.

Em       C        G          D
Quédate así de tu luz dame más
Em             Am      G
Verde luna cómplice serás
Em            C         G      D
Con coraje yo sé, luego te dejaré
(aquí es un solo rasgueo hacia abajo)
Em         C   G    D
Nieve al cielo traeré

(aquí es en ritmo de pop rock)
    Em  C            G                 D
Creeré    que hay amor y que es de todos
    Em C          G             D
Creeré    aunque no vean mis ojos
     Em C      G           C      Am
Creeré        el mundo que se va

Em C G D x2

Desde el azul yo me paro a escuchar
El silencio que no sentimos más
Pero después en la vida veo yo
Quien ya tiene de todo y quien no

Coro
Creeré que hay amor y que es de todos
Creeré aunque no vean mis ojos
Creeré el mundo que se va

Am        C             Am
Ríos sin mares sin corazón
C             D     Am          C
Flores de piedra, fuego alrededor

Coro
Creeré que hay amor y que es de todos
Creeré aunque no vean mis ojos
Em C        G                    C
Creeré en el mundo cambiaré
G                          D
El mundo que se va.

(termina con el intro)
Suggest correction
Give kudos to tab author, rate the tab!
1 2 3 4 5
comments
print report bad tab
guest
Wanna post a correction for this tab? Suggest correction