Oops, an error
Loading. Please wait.

Rosa Susana Inés Tab

23 views 1 this week
no commentswrite comment
1 2 3 4 5
3 more votes to show rating
add to favorites
×
Save as Personal and add changes to this tab that will be seen only by you. Learn more ›
×
You can save this tab as Personal to edit and correct it or add notes. All changes will be seen only by you. Learn more »
save as personal
new!
launch autoscroll
font size
0
reset
how to read this tab
guitar tuner
Autoscroll
slow
fast
+/-
esc
set tempo
stop
Aqui les dejo el intro de esta cancion espero les guste...

Intro:

  SOL    LA               RE
E----------------------------------------
A----------------------------------------
D-5-5-5---7------------------------------
G-------4---6-6-6-6-6---6-6-9-7--7-7-7-7-
B----------------------------------------
E----------------------------------------

 SOL    LA                RE
E-------------------------------
A-------------------------------
D-5-5-5---7---------------------
G-------4---6-6-6-6-6---6-6-9-7-
B-------------------------------
E-------------------------------

 SOL    LA                RE
E----------------------------------------
A----------------------------------------
D-5-5-5---7------------------------------
G-------4---6-6-6-6-6---6-6-9-7--7-7-7-7-
B----------------------------------------
E----------------------------------------

  SOL    LA               RE-SOL-RE
E-------------------------------------
A-------------------------------------
D-5-5-5---7---------------------5-----
G-------4---6-6-6-6-6---6-6-9-7---7-7-
B-------------------------------------
E-------------------------------------

RE                              LA
Pasaba frente a tu casa cuando te vi
                                 RE
Me dije este dulce mango será pa?mi
                                  SOL
Al mirar tu linda cara me oíste decir
          RE             LA            RE
Oh madre santa que sonrisita me diste ahí

  RE                                LA
Pase y pase por tu casa una y otra vez
                                      RE
Te pregunte por tu nombre y me diste tres
                              SOL
Dijiste me llamo Rosa Susana Inés
             RE              LA             RE
Te invite al cine y me contestaste con un revés

SOL        LA                          RE
Vales por tres Rosa Susana vales por tres
SOL        LA                       RE
Vales por tres Rosa Susana, Susana Inés
SOL        LA                          RE
Vales por tres Rosa Susana vales por tres
SOL        LA                       RE-SOL-RE
Vales por tres Rosa Susana, Susana Inés

Música: Sol,La,Re,Sol,La,Re-Sol-Re

   RE                                  LA
Me fui luego hasta mi casa pronto a dormir
                               RE
Al verte tan decidida mejor corrí
                                      SOL
Me pregunte por qué diablos actuaste así
          RE             LA             RE
Y al otro día que eras casada cuenta me di


SOL        LA                          RE
Vales por tres Rosa Susana vales por tres
SOL        LA                       RE
Vales por tres Rosa Susana, Susana Inés
SOL        LA                          RE
Vales por tres Rosa Susana vales por tres
SOL        LA                       RE-SOL-RE
Vales por tres Rosa Susana, Susana Inés


Música:Re-La,Re-La,Sol-Re,Sol (4 veces)

SOL        LA                          RE
Vales por tres Rosa Susana vales por tres
SOL        LA                       RE
Vales por tres Rosa Susana, Susana Inés
SOL        LA                          RE
Vales por tres Rosa Susana vales por tres
SOL        LA                       RE-SOL-RE
Vales por tres Rosa Susana, Susana Inés


DEDICADA PARA LOS PASKIS DEL TEPEHUAJE!!
PKZ!!!
Suggest correction
Give kudos to tab author, rate the tab!
1 2 3 4 5
comments
print report bad tab
guest
Wanna post a correction for this tab? Suggest correction