Oops, an error
Loading. Please wait.

Destrózame Bass

version 1
version 1

Whole song

Interactive

by Insite
54 views 1 this week
no commentswrite comment
1 2 3 4 5
3 more votes to show rating
add to favorites
×
Save as Personal and add changes to this tab that will be seen only by you. Learn more ›
×
You can save this tab as Personal to edit and correct it or add notes. All changes will be seen only by you. Learn more »
save as personal
new!
launch autoscroll
font size
0
reset
guitar tuner
Autoscroll
slow
fast
+/-
esc
set tempo
stop
Afinación: Drop C
/ : slide hacia delante
s : slide hacia atrás
h: martillar(hammer)
~ : dejar sonar

Intro:

F|----------------------------|
C|----------------------------|
G|-2~~------------------------|
C|-------5~~--0~~--7~~--7-7-7-|

F|----------------------------|
C|----------------------------|
G|-2-2-2-2---8-8-7-7-5-5-5----|
C|----------------------------|

F|------------------------------|
C|------------------------------|
G|--------------8-8-7-7-5-5-5---|
C|--5-5-5-5-5-------------------|

F|------------------------------|
C|------------------------------|
G|--------------8-8-7-7-5-5-5---|
C|--0-0-0-0-0-------------------|

F|------------------------------|
C|------------------------------|
G|--------------8-8-7-7-5-5-5---|
C|--7-7-7-7-7-------------------|

Verso 1:
Tan sólo
F|-----------------|
C|-----------------|
G|-----------------|
C|--0/12s 0--------|

Ven, escuchame tu sabes quien
F|------------------------------|
C|------------------------------|
G|------------------------------|
C|-5-5-5-5--5-5-5-5-5-5-5-5-5-5-|

    soy      yo olvidame otra

F|------------------------------|
C|------------------------------|
G|------------------------------|
C|-5-5-5-5---0-0-0-0-0-0-0-0-0--|

Vez, hazme creer que no soy
F|------------------------------|
C|------------------------------|
G|------------------------------|
C|-5-5-5-5--5-5-5-5-5-5-5-5-5-5-|

Tuyooo
F|--------|
C|--------|
G---------|
C|-0~~~---|

Coro: 2x

F|-------------------------------------|
C|-------------------------------------|
G|-2-2-2-2-2-2-2-2-2-------------------|
C|-------------------5-5-5-5-5-5-------|

F|---------------------------------------|
C|---------------------------------------|
G|---------------------------------------|
C|--0-0-0-0-0-0-0-0-0-7-7-7-7-7-7-7------|

Intro:

F|----------------------------|
C|----------------------------|
G|-2-2-2-2---8-8-7-7-5-5-5----|
C|----------------------------|

F|------------------------------|
C|------------------------------|
G|--------------8-8-7-7-5-5-5---|
C|--5-5-5-5-5-------------------|

F|------------------------------|
C|------------------------------|
G|--------------8-8-7-7-5-5-5---|
C|--0-0-0-0-0-------------------|

F|------------------------------|
C|------------------------------|
G|--------------8-8-7-7-5-5-5---|
C|--7-7-7-7-7-------------------|

Verso 2:
Igual que ayer
F|--------------------|
C|--------------------|
G|--------------------|
C|-5-5-5-5-5-5-5-5-5--|

y saber que siento porque sangro

F|------------------------------------------|
C|------------------------------------------|
G|------------------------------------------|
C|-5-5-5-5-5-5-5-5-5-5-5-0-0-0-0-0-0-0-0-0--|

y saber que miento si te extraño
F|------------------------------------------|
C|------------------------------------------|
G|------------------------------------------|
C|-0-0-0-0-0-0-0-0-0-5-5-5-5-5-5-5-5-5-5-5--|

Olvidame otra vez
F|--------------------------|
C|--------------------------|
G|--------------------------|
C|-0-0-0-0-0-0-0-0-0---0~~~-|

Coro: 2x

F|-------------------------------------|
C|-------------------------------------|
G|-2-2-2-2-2-2-2-2-2-------------------|
C|-------------------5-5-5-5-5-5-------|

F|---------------------------------------|
C|---------------------------------------|
G|---------------------------------------|
C|--0-0-0-0-0-0-0-0-0-7-7-7-7-7-7-7------|

Antes del puente:
F|-------------------|-----------|
C|-------------------|-----------|
G|-5-4-5--7--5-4-----|----5~~----|
C|-------------------|-----------|

Puente: No tardas en volver

F|--------------------|
C|-------5------------|
G|--5-----------------|
C|----------5-5-5-----|

Tu sola                    y piensas que estoy bien
F|---------------------------------------------|
C|-------5---------4-4-4h5h4--------5---7------|
G|--5-----------------------5-5-5---------5~~--|
C|----------5-5-5------------------------------|

F|---------------------------------------|
C|---------------------------------------|
G|---------------------2-2-2-2-2-2-2-----|
C|--0-0-0-0-0-0-0-0-0--------------------|

F|---------------------------------------|
C|---------------------------------------|
G|---------------------------------------|
C|--5-5-5-5-5-5-5-5-0-0-0-0-0-0-0-0-0-0--|

F|---------------------------------------|
C|---------------------------------------|
G|---------------------------------------|
C|--5-5-5-5-5-5-5-5-0-0-0-0-0-0-0-0-0-0--|

Olvidame otraaa            vez
F|---------------------------------------|
C|---------------------------------------|
G|---------------------------------------|
C|-0-0-0-0-0-0-0-0-0-0-----0~~~~---------|

F|--------------------|
C|--------------------|
G|--------------------|
C|--5-5-5-5-5-5-5-5---|

Coro: 2x

F|-------------------------------------|
C|-------------------------------------|
G|-2-2-2-2-2-2-2-2-2-------------------|
C|-------------------5-5-5-5-5-5-------|

F|---------------------------------------|
C|---------------------------------------|
G|---------------------------------------|
C|--0-0-0-0-0-0-0-0-0-7-7-7-7-7-7-7------|

F|----------------------------|
C|----------------------------|
G|-2-2-2-2---8-8-7-7-5-5-5----|
C|----------------------------|

             Destrozameeee eeee   eee
F|---------------------------------------|
C|---------------------------------------|
G|---------------------------------------|
C---5-5-5-5-5-5-5-5-5-5-5---55----0~~~---|
Suggest correction
Give kudos to tab author, rate the tab!
1 2 3 4 5
comments
print report bad tab
guest
Wanna post a correction for this tab? Suggest correction