Oops, an error
Loading. Please wait.

Discúlpame Me Rindo Tab

by Insite
79 views 1 this week
no commentswrite comment
1 2 3 4 5
3 more votes to show rating
add to favorites
×
Save as Personal and add changes to this tab that will be seen only by you. Learn more ›
×
You can save this tab as Personal to edit and correct it or add notes. All changes will be seen only by you. Learn more »
save as personal
new!
launch autoscroll
font size
0
reset
how to read this tab
guitar tuner
Autoscroll
slow
fast
+/-
esc
set tempo
stop
Hola, aqui les dejo una tablatura más de Insite
espero sacar pronto alguna de sus nuevas rolas
pero por el momento aqui esta esta de disco -Una Vida No Es Suficiente-
por favor escuchen muy bien la cancion para que les salga bien
los acordes de la guitarra 1 y 2 son diferentes asi que chequen bien eso
Dudas mandame UN CORREOO! no por el msn a
pacorock94@


-Guitarra 1 y2
1|---------------------------------------------
2|---------------------------------------------
3|---------------------------------------------
4|--/////////////////////////////////////------
5|----------/////////////////////////////////--
6|---------------------------------------------


-Intro
-Guitarra 1:
1|-----------------------------------------------------------
2|------------------------------15---------------------------
3|--14-------11--------12--------x-(X16)--11--------12-------
4|---x-(X16)--x-(X16)---x-(X16)-12---------x-(X16)---x-(X16)-
5|--12--------9--------10------------------9--------10-------
6|-----------------------------------------------------------

1|------------
2|--15--------
3|---x-(X16)--
4|--17--------
5|------------
6|------------

-Guitarra 2:
1|--------------------------
2|--------------------------
3|-------------------------- x2
4|--0-------9-------5-------
5|--0-(X16)-9-(X16)-5-(X32)-
6|--0-------9-------5-------

-Verso:
Nota:LE ->INVENTARÉ<- UN NOMBRE A ESTOS "ACORDES"
     USTEDES DEBEN DE ESCUCHAR LA CANCION PARA
     SABER COMO VAN LOS TIEMPOS

-Guitarra 1:
   A    F#    G
1|----|----|----|
2|----|----|----|
3|-14-|-11-|-12-|
4|--x-|--x-|--x-|
5|-12-|--9-|-10-|
6|----|----|----|
                  A     F#
Hoy vengo a entregarte amor
                   G               A
Las armas con las que me defiendo de ti
               A      F#
Esta bien tu ganaste hoy
              G                 A
Quiza mañana ya no te acuerdes de mí

-Guitarra 2:
   E   C#  A
1|---|---|---|
2|---|---|---|
3|---|---|---|
4|-0-|-9-|-5-|
5|-0-|-9-|-5-|
6|-0-|-9-|-5-|
                  E     C#
Hoy vengo a entregarte amor
                   A
Las armas con las que me defiendo de ti
               E      C#
Esta bien tu ganaste hoy
              G
Quiza mañana ya no te acuerdes de mí

-Pre-coro
Guitarras 1 y 2:
  F#   A   E   B
1|---|---|---|---|
2|---|---|---|---|
3|---|---|---|---|
4|-2-|-5-|-0-|-7-|
5|-2-|-5-|-0-|-7-|
6|-2-|-5-|-0-|-7-|

F#                   A
 Y hoy me entrego a ti
                        E    A
Te espera el sol de un dia amandote
         E         B
toda mi vida te entrego hoy

-Coro
Guitarra 2: usando los mismos acordes
    E           A             E
Disculpame, no pude otra vez contra ti
       B
Y hoy ya es muy tarde

-Guitarra 1: Punteo del coro
1|------------------------------
2|--10-7--15--14--12--12-12-14--
3|------------------------------
4|------------------------------x4
5|------------------------------
6|------------------------------

-Intro

-Verso: Guitarra 1: mismos nombres de los anteriores acordes
NOTA: LES REPITO QUE VUELVAN A ESCUCHAR BIEN LA CANCION
      AQUI SE TURNAN LAS GUITARRAS, PRIMERO UNA DA UN RASGUEO
      LA PRIMERA GUITARRA, HACE PAUSA Y EN ESA PAUSA TOCA SU ACORDE
      LA SEGUNDA GUITARRA.

               A       F#
Ven mira no importa amor
                G                  A
No tienes que llorar esto ya lo entendí
                   A      F#
No importa ya todo esta bien
               G                    A
Las cosas son así y yo no dejo de sentir


-Guitarra 2: Los acordes entre parentesis son con >PM<
               E       C#
Ven mira no importa amor
                A
No tienes que llorar esto ya lo entendí
                  (E)    (C#)
No importa todo ya esta bien
              (A)
Las cosas son así y yo no dejo de sentir


-Pre-coro: ahi lo tienen ya
-Coro: igual al anterior
Solo queda el final que es así

Guitarra 1:
1|----------------------
2|----------------------
3|--14--14--14------14--
4|---x---x---x-------x--
5|--12--12--12------12--
6|----------------------

Guitarra 2:
1|----------------
2|----------------
3|----------------
4|--0-0-0----0----
5|--0-0-0----0----
6|--0-0-0----0----

Le dedico esta cancion a Mariely porque me recuerda a los ultimos dias
que estuve en contacto con ella. antes de que yo me rindiera.
Suggest correction
Give kudos to tab author, rate the tab!
1 2 3 4 5
comments
print report bad tab
guest
Wanna post a correction for this tab? Suggest correction