Oops, an error
Loading. Please wait.

Vasos Vacíos tab

version 3
version 3

Whole song

Interactive

85 views 1 this week
no commentswrite comment
1 2 3 4 5
3 more votes to show rating
add to favorites
×
Save as Personal and add changes to this tab that will be seen only by you. Learn more ›
×
You can save this tab as Personal to edit and correct it or add notes. All changes will be seen only by you. Learn more »
launch autoscroll
font size
0
reset
how to read this tab
guitar tuner
edit
Autoscroll
slow
fast
+/-
esc
set tempo
stop
Esta cancion se toca con ritmo de SKA

RITMO: ARRIBA, CORTE(o apoyo con el puño cerrado en
las 3 primeras cuerdas)

Primero pongo la tablatura y despues los acordes


E  ------------------------------------------------------
B  -8-7------8-7-10-7--------8-7--------8-7--------------
G  ----7------------------------7----------7-5-7---------
D  ------------------------------------------------------
A  ------------------------------------------------------
E  ------------------------------------------------------

Hasta ahi seria el punteo, pero yo le agregue (seguido del
punteo de arriba) un arreglo que se escucha bien(lo puede
hacer la misma guitarra que puntea, o bien, otra guitarra)

E  ---11----9---8----6--5--------------------------------
B  -8-8---6-6-5-5--3-3--2--------------------------------
G  ------------------------------------------------------
D  ------------------------------------------------------
A  ------------------------------------------------------
E  ------------------------------------------------------

Para acompañar el tema se toca con estos acordes:

Intro y verso: 8G,8Em,8C,8D

Estribillo: hay dos formas de tocarlo, con ritmo de Balada I
(abajo,corte,abajo,arriba,corte-o apoyo con el puño de la
mano derecha cerrado en las tres primeras cuerdas)y con ritmo
de SKA,lamentablemente no me acuerdo como seria :S.

El de Balada I es asi:

2C,1G,(hacer una pequeñisima pausa y sigue con)2G,1F,1Em,1C,
1D,1G,1D

Les explico el estribillo en tres apartados:
1)Cuando se toca 2C se hace con ritmo de balada I
2)En el momento de tocar ...1G,2G,1F... se acompaña con UN solo
movimiento descendente para estos tres acordes.
3)Cuando se toca ...1Em,1C,1D,1G,1D... se vuelve a tocar con
ritmo
de balada I.

Y una ultima aclaracion:

Los numeros que aparecen delante del acorde significa que se
hace(dependiendo del numero que lleve adelante) con tanta
cantidad de tiempos.
Cabe destacar que un tiempo en SKA equivale a ARRIBA,CORTE.
Y en Balada I 1(un) tiempo equivale a: ABAJO,CORTE,ABAJO,ARRIBA,
CORTE.

Y asi es toda la cancion.
Si tienen alguna consulta o sugerencia manden mensaje a mi
correo PabloOlmos_3@
Espero que me hallan entendido.

            
            
Suggest correction
Creating personal tab
Creating personal tab
You can edit any tab online and save it as your Personal.

You can edit, replace or remove any tab part or add personal notes – all changes will be seen only by you.

Personal tabs can be accessed anytime from any device, even offline.
Learn more »
Give kudos to tab author, rate the tab!
1 2 3 4 5
comments
print report bad tab
guest
Wanna post a correction for this tab? Suggest correction