Oops, an error
Loading. Please wait.

Yo Vengo A Ofrecer Mi Corazón tab

version 2
version 2

Whole song

98 views 6 this week
no commentswrite comment
1 2 3 4 5
3 more votes to show rating
add to favorites
×
Save as Personal and add changes to this tab that will be seen only by you. Learn more ›
×
You can save this tab as Personal to edit and correct it or add notes. All changes will be seen only by you. Learn more »
launch autoscroll
font size
0
reset
how to read this tab
guitar tuner
edit
Autoscroll
slow
fast
+/-
esc
set tempo
stop
INTRO: Em7  Bm7/A  C7   D  Am47y9  Bm7y4  E4


Así es el arpegio de los acordes, el cual es el mismo para los versos:

e|---------7--------7--------7---------7--------7-----------7----
B|-----8---------8--------7---------7--------8----------8--------
G|-----7---------7--------7---------7--------9----------9--------
D|------------------------------------------10------10-----------
A|-----7------7-----------0------0-------------------------------
E|---------------------------------------------------------------


e| ----5--------5-------3-------3-------2-------2----------
B|--7--------7-------0-------0-------3-------3-------0-----
G|--7--------7-------5-------5-------2-------2-------2-----
D|--0-----0------------------------------------------2-----
A|-------------------0-----0---------2-----2---------2-----
E|---------------------------------------------------------


¿Quién dijo que todo está perdido?
yo vengo a ofrecer mi corazón,(ver tablatura 1)
tanta sangre que se llevó el río,
yo vengo a ofrecer mi corazón.

            Am7        Bm7y4     Em9
No será tan fácil, ya sé qué pasa,
             Am7      Bm7y4   Em9
no será tan simple como pensaba,
               Am7    G/B      C9
como abrir el pecho y sacar el alma,
F#m7y4               B7 (ver tablatura 2)
una cuchillada del amor.


Luna de los pobres siempre abierta,
yo vengo a ofrecer mi corazón, (ver tablatura 1 segundo motivo)
como un documento inalterable
yo vengo a ofrecer mi corazón.

             Am7          Bm7y4    Em9
Y uniré las puntas de un mismo lazo,
              Am7        Bm7y4     Em9
y me iré tranquilo, me iré despacio,
           Am7    G/B       C9 (ver tablatura 3)
y te daré todo, y me darás algo,
F#m7y4                      B7 (ver tablatura 2)
algo que me alivie un poco más.


Cuando no haya nadie cerca o lejos,
yo vengo a ofrecer mi corazón. (ver tablatura 1 primer motivo)
cuando los satélites no alcancen,
                           Em47y9
yo vengo a ofrecer mi corazón.


            Am7        Bm7y4     Em9
Y hablo de países y de esperanzas,

               Am7       Bm7y4     Em9
hablo por la vida, hablo por la nada,
              Am7   G/B            C9 (ver tablatura 3)
hablo de cambiar    ésta, nuestra casa,
F#m7y4                        B7 (ver tablatura 2)
de cambiarla por cambiar, nomás.


¿Quién dijo que todo está perdido?
yo vengo a ofrecer mi corazón. (ver tablatura 1 tercer motivo)


Final: repite una vez la introducción y después hace

e|-------7--------
B|---8-------5----
G|---7-------4----    x4
D|----------------
A|---7------------
E|----------------


Tablatura 1: la melodía que hace el piano

e|------------------------------
B|---------------------------7*-
G|-----7*-------12*----7*-------     *: armónico
D|---------7*-------------------
A|------------------------------
E|------------------------------

Segundo motivo:

e|-----------------------------7*----
B|--------------7*--------7*---------
G|-----7*------------7*--------------
D|----------7*-----------------------
A|-----------------------------------
E|-----------------------------------


Tercer motivo:

e|---------------
B|---------------
G|----------7*---
D|------7*-------
A|---------------
E|---------------


Tablatura 2: el adorno que hace el piano

e|---------------------------------------
B|--3---1---0----------------------------
G|--------------2---0--------------------
D|--4---2---1-----------4----------------
A|--------------3---2--------------------
E|----------------------5----------------


Tablatura 3: pasaje en el acorde de C9

e|-----3-----3-----3-----3--
B|--3-----3-----1-----0-----
G|--0-----0-----0-----0-----
D|--------------------------
A|--3-----2-----0-----------
E|--------------------3-----


Acordes:

Em7: x 7 0 7 8 7

Bm7/A: x 0 0 7 7 7

C7M: x x 10 9 8 7

D: x x 0 7 7 5

Am47y9. x 0 0 5 0 3

Bm7y4: x 2 2 2 3 2

E4: 0 2 2 2 0 0

Am7: x 0 2 0 1 0

Em9: 0 2 4 0 0 0

G/B: x 2 0 0 3 3

C9: x 3 0 0 3 0

F#m7y4: 2 0 2 2 0 0

B7: x 2 1 2 0 2

Em47y9: 0 2 5 2 3 2

            
            
Suggest correction
Creating personal tab
Creating personal tab
You can edit any tab online and save it as your Personal.

You can edit, replace or remove any tab part or add personal notes – all changes will be seen only by you.

Personal tabs can be accessed anytime from any device, even offline.
Learn more »
Give kudos to tab author, rate the tab!
1 2 3 4 5
comments
print report bad tab
guest
Wanna post a correction for this tab? Suggest correction