Oops, an error
Loading. Please wait.

Amor Sin Fín tab

101 views 1 this week
no commentswrite comment
1 2 3 4 5
3 more votes to show rating
add to favorites
×
Save as Personal and add changes to this tab that will be seen only by you. Learn more ›
×
You can save this tab as Personal to edit and correct it or add notes. All changes will be seen only by you. Learn more »
launch autoscroll
font size
0
reset
how to read this tab
guitar tuner
edit
Autoscroll
slow
fast
+/-
esc
set tempo
stop
SOLO DE INTRO:

E-----------13-------------------------------------
B-15b(17)vv----15b(17)r-13vvv-----13---15b(17)r-13-
G------------------------------14---14-------------
D------------------------------12------------------
A------------------------------15------------------
E--------------------------------------------------


E-------------------------------------------------
B-------------------------------------------------
G-12b(14)r--------12vvv--10-9---------------------
D----------12b(14)-----------12-10-12b(14)r-10vvv-
A-------------------------------------------------
E-------------------------------------------------

E-------------------
B-------------------
G-7h8-5h7-3h5-------
D-------------3p2vv-
A-------------------
E-------------------


C         F          Am
  El mundo.. no para
             G
Y estas tan lejos
C                   F                  Am
  Aun llevo el calor.. y tu excitación
                  G
Aguardando tu regreso
Dm                    F                     Am
   Se hace tan difícil.. que me cuesta respirar
               G
Si no estas aquí
Dm                   F                      Am
   Tengo la esperanza.. que se vuelva a repetir
               G
Este amor sin fin


C          F                 Am              G
  La lluvia.. traera hacia mí.. viejos recuerdos
C               F                   Am
  Tu imaginación.. la vieja canción
                  G
Y el futuro tan incierto
Dm                 F                    Am              G
   El primer abrazo.. y del beso que te di al verte partir
Dm                   F                    Am
   Fuimos tan felices.. que no puedo concebir
                   G
Que hoy no estés aquí


Coro
C                  F
   Yo se que soy tu verdad
C                F
   Y se que a mi lado estas
Am                        F  Am                         F
   Aunque el tiempo nos aleje... yo te llevo siempre en mi

SOLO DE GUITARRA:

E-----------------------------------------------------
B--------------/9vvv--8--8h10vvv-10-8h10p8-8----------
G------------9---------9--------------------10-9h10p9-
D----------10-----------------------------------------
A-/10vvv-10-------------------------------------------
E-----------------------------------------------------

E----------------12-15vvv-15b(17)-15b(17)rvvv-
B--------------13-----------------------------
G------------12-------------------------------
D-12b(14)vvv----------------------------------
A---------------------------------------------
E---------------------------------------------

E-12h13p12----------------------------------
B---------15p13p12-15b(17)r-p13-15p13-------
G------------------------------------14vvv--
D-------------------------------------------
A-------------------------------------------
E-------------------------------------------


Am                           F
   Aunque el tiempo nos separe mas
Am                        F
   Yo te llevo siempre en mi
E                     F      G               C
   Y mañana al despertar estaré pensando en ti
   E        F
Igual que ayer
    G               D
Estaré pensando en ti
     A         G       A       D
por que Este amor no puede morir
    A     G       A        Bm
Ya no tendrá principio ni fin
      A             G    Bm      A              G
mas allá de lo imposible... es mi alma quien te dice
A   Bm    D
te amaree

bueno esta cancion esta dedicada a una personita que k.m
cualquier correccion o problema no duden en mandar me un mail
a pablo_13_7@

            
            
Suggest correction
Creating personal tab
Creating personal tab
You can edit any tab online and save it as your Personal.

You can edit, replace or remove any tab part or add personal notes – all changes will be seen only by you.

Personal tabs can be accessed anytime from any device, even offline.
Learn more »
Give kudos to tab author, rate the tab!
1 2 3 4 5
comments
print report bad tab
guest
Wanna post a correction for this tab? Suggest correction