Oops, an error
Loading. Please wait.

Días Duros bass

version 2
version 2

Whole song

Interactive

56 views 1 this week
no commentswrite comment
1 2 3 4 5
3 more votes to show rating
add to favorites
×
Save as Personal and add changes to this tab that will be seen only by you. Learn more ›
×
You can save this tab as Personal to edit and correct it or add notes. All changes will be seen only by you. Learn more »
launch autoscroll
font size
0
reset
guitar tuner
edit
Autoscroll
slow
fast
+/-
esc
set tempo
stop
Intro
  F                 E                 B                 D

||-----------------|-----------------|-----------------|-----------------||
||-----------------|-----------------|-----------------|-----------------||
||-----------------|-----------------|-----------------|-----------------|| x 2
||-----------------|-----------------|-----------------|-----------------||


||-----------------|-----------------||
||-----------------|-----------------||
||-----------------|-----------------||
||-0---2-2-2-2-2-2-|-2-2-2-2-2-2-2-2-|| x 3

||-----------------|-----------------||
||-----------------|-----------5-4---||
||-----------------|---------------7-||
||-0---2-2-2-2-2-2-|-2-2-2-2-2-------||

Verse 1
||-----------------|-----------------||
||-----------------|-----------5-4---||
||-4---4-4-4-4-4-4-|-4-4-4-4-4-----7-||
||-----------------|-----------------|| x 3

||-----------------|-----------------||
||-----------------|-----------------||
||-4---4-4-4-4-4-4-|-4-4-4-4-4-----4-||
||-----------------|-----------5-7---||

||-----------------|-----------------|-----------------|-------------2---||
||-----------------|-----------------|-----------------|-------2---4-----||
||-5---5-5-5-5-5-4-|-3-3-3-4-5-4-3-0-|-----------------|-----4---4-----4-||
||-----------------|-----------------|-2-2-2-2-2-2-2-2-|-2---------------||

||-----------------|-----------------|-----------------|-----------------||
||-----------------|-----------------|-----------------|-----------------||
||-5---5-5-5-5-5-5-|-0-0-0-0-0-0-0-0-|-5-5-5-5-4-4-4-4-|-2-2-2-2-2h4-2-0-||
||-----------------|-----------------|-----------------|-----------------||


||-----------------|-----------------||
||-----------------|-----------------||
||-----------------|-----------------||
||-0---2-2-2-2-2-2-|-2-2-2-2-2-2-2-2-|| x 3

||-----------------|-----------------||
||-----------------|-----------5-4---||
||-----------------|---------------7-||
||-0---2-2-2-2-2-2-|-2-2-2-2-2-------||

verse 2
||-----------------|-----------------||
||-----------------|-----------5-4---||
||-4---4-4-4-4-4-4-|-4-4-4-4-4-----7-||
||-----------------|-----------------|| x 3

||-----------------|-----------------||
||-----------------|-----------------||
||-4---4-4-4-4-4-4-|-4-4-4-4-4-----4-||
||-----------------|-----------5-7---||

||-----------------|-----------------|-----------------|-------------2---||
||-----------------|-----------------|-----------------|-------2---4-----||
||-5---5-5-5-5-5-4-|-3-3-3-4-5-4-3-0-|-----------------|-----4---4-----4-||
||-----------------|-----------------|-2-2-2-2-2-2-2-2-|-2---------------||

||-----------------|-----------------|-----------------|-----------------||
||-----------------|-----------------|-----------------|-----------------||
||-5---5-5-5-5-5-5-|-0-0-0-0-0-0-0-0-|-5-5-5-5-4-4-4-4-|-2-2-2-2-2h4-2-0-||
||-----------------|-----------------|-----------------|-----------------||


||-------------------|-------------------||
||-------------------|-------------------||
||-------------------|-------------------||
||-0---2-2-2-2-2-2-2-|-2-2-2-2-2-2-2-2-2-|| x 3

||-------------------|-------------------||
||-------------------|-------------------||
||-------------------|-------------------||
||-0---2-2-2-2-2-2-2-|-2-2-2-2-2-2-2-3-4-||

Coro
||-------------------|-------------------|-------------------|-------------------||
||-------------------|-------------------|-------------------|-------------------||
||-0-0-0-0-0-0-0-0-0-|-0-0-0-0-0-0-0-0-0-|-------------------|-------------------||
||-------------------|-------------------|-0-0-0-0-0-0-0-0-0-|-0-0-0-0-0-0-0-0-0-||

||-------------------|-------------------|-------------------|-------------------||
||-------------------|-------------------|-------------------|-------------------||
||-------------------|---------------2-3-|-5-5-5-5-5-5-5-5-5-|-5-5-5-5-5-5-5-----||
||-3-3-3-3-3-3-3-3-3-|-3-3-3-3-3-3-3-----|-------------------|---------------3-4-||

||-------------------|-------------------|-------------------|-------------------||
||-------------------|-------------------|-------------------|-------------------||
||-0-0-0-0-0-0-0-0-0-|-0-0-0-0-0-0-0-0-0-|-------------------|-------------------||
||-------------------|-------------------|-0-0-0-0-0-0-0-0-0-|-0-0-0-0-0-0-0-0-0-||

||---------------|---------------|---------------|-------2-------||
||-----5------5--|-----7---------|---------------|-2-4-5---------||
||---------------|-5-5--------7--|-----2------2--|---------2-3-0-||
||-2-2----2-2----|--------5-5----|-0-0----0-0----|---------------||


||---------------|---------------|---------------|---------------||
||---------------|---------------|---------------|---------------||
||---------------|---------------|---------------|---------3-2-0-||
||-2-0-2-0-2-5-0-|-2-0-2-0-5-2-0-|-2-0-2-0-2-5-0-|-2-0-2-0-------|| x 2

Guitar Solo
||---------------|---------------|---------------|---------------||
||---------------|---------------|---------------|---------------||
||---------------|---------------|---------------|---------3-2-0-||
||-2-0-2-0-2-5-0-|-2-0-2-0-5-2-0-|-2-0-2-0-2-5-0-|-2-0-2-0-------||

||---------------|---------------|---------------|-2-------------||
||---------------|---------------|---------------|---4-2---------||
||---------------|---------------|---------------|-------4-3-2-0-||
||-2-0-2-0-2-5-0-|-2-0-2-0-5-2-0-|-2-0-2-0-2-5-0-|---------------||

||---------------|---------------|---------------|---------------||
||---------------|---------------|---------------|---------------||
||-2-----2-2-----|-2-----2-2-----|---------------|---------------||
||---------------|---------------|-3-----3-3-----|-3-----3-3-----||

||---------------|---------------|---------------|---------------||
||---------------|---------------|---------------|---------------||
||-0-----0-0-----|-7-----7-7-----|-0-----0-0-----|-7-----7-7-----||
||---------------|---------------|---------------|---------------||

||---------------|---------------|---------------|---------------||
||---------------|---------------|---------------|---------------||
||-2-----2-2-----|-2-----2-2-----|---------------|---------------||
||---------------|---------------|-3-----3-3-----|-3-----3-3-----||

||---------------|---------------|---------------|---------------||
||---------------|---------------|---------------|---------------||
||-0-----0-0---5-|-7-----7-5-----|-5-4-----4--4--|-4-4--2--0-----||
||---------------|---------------|---------------|------------4--||

||---------------|---------------|---------------|---------------||
||---4-------4---|---4-------4---|---4-------4---|-----7-----2/0-||
||---------------|---------------|---------------|-5-5-----------||
||-2-----2-2-----|-2-----2-2-----|-2-----2-2-----|-------0-0-----|| x 4

||-----------------|-----------------|-----------------|-----------------|
||-----------------|-----------6h7p6-|-----------------|-----------------|
||-5p4h5p4-0h4-5 7-|-7p5h7p5-7-------|-5p4h5p4-0---4h5-|-4h5-4h5-4h5--4--|
||-----------------|-----------------|-----------------|-----------------|

 |-----------------||
 |-----------------||
 |-4h5-4h5-4h5--4--||
 |-----------------||

||---------------|---------------|---------------|---------------||
||---------------|---------------|---------------|---------------||
||---------------|---------------|---------------|---------------||
||-2-----2-2-----|-2-----2-2-----|-0-----0-0-----|-0-----0-0-----||

||---------------|---------------|---------------|---------------||
||---------------|---------------|---------------|---------------||
||-0-----0-0---0-|-5-7----7-5----|-5-4----4----4-|----4----4-----||
||---------------|---------------|---------------|---------------||

||---------------|---------------|---------------|---------------||
||---------------|---------------|---------------|---------------||
||---------------|---------------|---------------|---------3-2-0-||
||-2-0-2-0-2-5-0-|-2-0-2-0-5-2-0-|-2-0-2-0-2-5-0-|-2-0-2-0-------|| x 3

||---------------|---------------|---------------|-2-------------||
||---------------|---------------|---------------|---4-2---------||
||---------------|---------------|---------------|-------4-3-2-0-||
||-2-0-2-0-2-5-0-|-2-0-2-0-5-2-0-|-2-0-2-0-2-5-0-|---------------||

||------------------||
||-----------/5-4---||
||-------0-2------7-||
||-0-1-2------------||

Verse 3
||-----------------|-----------------||
||-----------------|-----------5-4---||
||-4---4-4-4-4-4-4-|-4-4-4-4-4-----7-||
||-----------------|-----------------|| x 3

||-----------------|-----------------||
||-----------------|-----------------||
||-4---4-4-4-4-4-4-|-4-4-4-4-4-----4-||
||-----------------|-----------5-7---||

||-----------------|-----------------|-----------------|-------------2---||
||-----------------|-----------------|-----------------|-------2---4-----||
||-5---5-5-5-5-5-4-|-3-3-3-4-5-4-3-0-|-----------------|-----4---4-----4-||
||-----------------|-----------------|-2-2-2-2-2-2-2-2-|-2---------------||

||-----------------|-----------------|-----------------|-----------------||
||-----------------|-----------------|-----------------|-----------------||
||-5---5-5-5-5-5-5-|-0-0-0-0-0-0-0-0-|-5-5-5-5-4-4-4-4-|-2-2-2-2-2h4-2-0-||
||-----------------|-----------------|-----------------|-----------------||


||-------------------|-------------------||
||-------------------|-------------------||
||-------------------|-------------------||
||-0---2-2-2-2-2-2-2-|-2-2-2-2-2-2-2-2-2-|| x 21

||-------------------|-------------------|-------------------||
||-------------------|------------/5-4---|-------------------||
||-------------------|-----------------7-|-4-----------------||
||-0---2-2-2-2-2-2-2-|-2-2-2-2-2-2-------|-------------------||

            
            
Suggest correction
Creating personal tab
Creating personal tab
You can edit any tab online and save it as your Personal.

You can edit, replace or remove any tab part or add personal notes – all changes will be seen only by you.

Personal tabs can be accessed anytime from any device, even offline.
Learn more »
Give kudos to tab author, rate the tab!
1 2 3 4 5
comments
print report bad tab
guest
Wanna post a correction for this tab? Suggest correction