Oops, an error
Loading. Please wait.

Líbranos Del Mal tab

version 1
version 1

Whole song

Interactive

152 views 1 this week
no commentswrite comment
1 2 3 4 5
3 more votes to show rating
add to favorites
×
Save as Personal and add changes to this tab that will be seen only by you. Learn more ›
×
You can save this tab as Personal to edit and correct it or add notes. All changes will be seen only by you. Learn more »
launch autoscroll
font size
0
reset
how to read this tab
guitar tuner
edit
Autoscroll
slow
fast
+/-
esc
set tempo
stop
(SIN DISTORSIÓN)

|-------------------------------------------------------------------------|
|----10b(12)r10--------6b(8)r6--------------------------------------------|
|--9------------9----5---------5--7-9-10--9h10p9-7-5h7p5-4--5-/7--5--4~---|
|-------------------------------------------------------------------------|
|-------------------------------------------------------------------------|
|-------------------------------------------------------------------------|


|--------------------5-----------10--12-13-12b(13)r12--10--10--p--8-------------|
|----10b(12)r10--------6b(8)r6--------------------------------------12--10--9---|
|--9------------9--------------5------------------------------------------------|
|-------------------------------------------------------------------------------|
|-------------------------------------------------------------------------------|
|-------------------------------------------------------------------------------|


|---12-12b(13)r12--12---10--10----------------|-----13-15-15b--17p15--12-13--|
|---------------------------13b(15)r13--13~~--|--15--------------------------|
|---------------------------------------------|------------------------------|
|---------------------------------------------|------------------------------|
|---------------------------------------------|------------------------------|
|---------------------------------------------|------------------------------|


|-13b--13-12-13p12------|-------------------------------------------|
|------------------13b--|--12b(13)r12----15--13---------------------|
|-----------------------|--------------(x)-------12b(14)r12--12~~---|
|-----------------------|-------------------------------------------|
|-----------------------|-------------------------------------------|
|-----------------------|-------------------------------------------|


|--10----------10---12-13-12h13p12~~------------------------------------|
|--13b--10-----13b-------------------/11-13-15\13---9-10-9-----9--------|
|----------12----------------------------------------------9---9--------|
|--------------------------------------------------------------9--------|
|--------------------------------------------------------------7---7\---|
|-----------------------------------------------------------------------|

(con distorsión)
|--------------------------------------------------------------------------------------------------|
|----10b(12)r12--------6b(8)r6---------------------------------------------------------------------|
|--9------------9----5---------5---7-9-10--9h10p9-7-5h7p5-4-5-/7-12b--12-10h12p10\8h10p8\6h8p6-5~--|
|--------------------------------------------------------------------------------------------------|
|--------------------------------------------------------------------------------------------------|
|--------------------------------------------------------------------------------------------------|


|--------------------12~~----------------8~-|-----13--15-15b--17p15--12-13--13b-13-12-13p12------|
|----10b(12)r10--12b---------6b(8)r6--8b----|--15--------------------------------------------13b-|
|--9-----------------------5----------------|----------------------------------------------------|
|-------------------------------------------|----------------------------------------------------|
|-------------------------------------------|----------------------------------------------------|
|-------------------------------------------|----------------------------------------------------|


|----------------------------------------------------|--10----------10----12-13-12h13p12~~--|
|-------------15-13----------------------------------|--13b--10-----13b---------------------|
|--12b(14)r12-------12h14p12-------------------------|----------12--------------------------|
|----------------------------14p12-15p14--10h12-9~~--|--------------------------------------|
|----------------------------------------------------|--------------------------------------|
|----------------------------------------------------|--------------------------------------|

          disminuir ritmo..........tiempo libre.................
|--------------------------------------------------------------------|          
|--/11-13-15\---9--10--9---9~~~-----15b--15b----13h15p13\12\10~~~----|
|------------------------9-------------------------------------------|    FIN
|--------------------------------------------------------------------|
|--------------------------------------------------------------------|
|--------------------------------------------------------------------|


EXPLICACION DE LA TABLATURA:


  b: bending o estirar la cuerda
  r: release o bajar la cuerda estando en bending
  p: pull off o ligado descendente  
  h: hammer on o ligado ascendente
  /: arrastre ascendente
  \: arrastre descendente
  ~: vibrato
(x): cuerda ahogada
Suggest correction
Creating personal tab
Creating personal tab
You can edit any tab online and save it as your Personal.

You can edit, replace or remove any tab part or add personal notes – all changes will be seen only by you.

Personal tabs can be accessed anytime from any device, even offline.
Learn more »
Give kudos to tab author, rate the tab!
1 2 3 4 5
comments
print report bad tab
guest
Wanna post a correction for this tab? Suggest correction