Oops, an error
Loading. Please wait.

Mr. Cósmico tab

34 views 1 this week
no commentswrite comment
1 2 3 4 5
3 more votes to show rating
add to favorites
×
Save as Personal and add changes to this tab that will be seen only by you. Learn more ›
×
You can save this tab as Personal to edit and correct it or add notes. All changes will be seen only by you. Learn more »
launch autoscroll
font size
0
reset
how to read this tab
guitar tuner
edit
Autoscroll
slow
fast
+/-
esc
set tempo
stop
ACLARACIÓN:	En este tema se baja la afinación de la sexta cuerda
		en un tono para que quede en D(RE)

INTRO:

 E|----------------------------|----------------|----------------------------|----------------|
 B|----------------------------|----------------|----------------------------|----------------|
 G|----------------------------|----------------|----------------------------|----------------|
 D|---------4-------4---4---5--|-------4--------|---------4-------4---4---5--|-------4--------|
 A|---3-4-5---5-3-5---5---5---3|-3-4-5---5-3-4-5|---3-4-5---5-3-5---5---5---3|-3-4-5--5-3-4-5-|
 D|-0--------------------------|----------------|-0--------------------------|----------------|


 E|----------------------------------|--------------------------------|
 B|----------------------------------|--------------------------------|
 G|----------------------------------|--------------------------------|
 D|-------3-------3---5-------3------|-------3------3---5------3------|
 A|-3-4-5---5-3-5---5---3-4-5---5-3-5|-3-4-5---5-3-5--5--3-4-5---5-3-5|
 D|----------------------------------|--------------------------------|

	A TRAVES DE UN CAMINO OSCURO LLEGUE HASTA AQUI ...
	CON LA ESPERANZA DE SALVAR TU ALMA ...

 E|----------------------------|----------------------------|
 B|----------------------------|----------------------------|
 G|----------------------------|----------------------------|
 D|----------------------------|-----------------------5-/-7|
 A|-/-0-3-5-0-3-5-3-0-6-5-3-5-3|-0-3-5-0-3-5-3-0-6-5-3-3-/-5|
 D|-/-0-3-5-0-3-5-3-0-6-5-3-5-3|-0-3-5-0-3-5-3-0-6-5-3------|


SOLO:

 E|-----------------------------------------------------------------------|-------------------------------------------|
 B|-14b15-14b15-14b15-------15-------15-------15--------------------------|-------------------------------------------|
 G|---------------------------------------------------------------h-------|-9-9p7-6-7-7p6---6-------------------------|
 D|-------------------15b16----15b16----15b16---15b16-12-------12-14b15-12|---------------9---9p7-6-7p6------4-----5-4|
 A|------------------------------------------------------12-15------------|-----------------------------9-5-7--5-7----|
 D|-----------------------------------------------------------------------|-------------------------------------------|


 E|---------------------------------------------------------|---------17-------17-------17-17p15-14-17b19-17|
 B|-17b19-17b19-17b19-17b19-17p15----15----15----15----15-----|-17b19----17b19----17b15---------------------|
 G|-------------------------------16-17b19-17b19-17b19-17b19|-----------------------------------------------|
 D|---------------------------------------------------------|-----------------------------------------------|
 A|---------------------------------------------------------|-----------------------------------------------|
 D|---------------------------------------------------------|-----------------------------------------------|


 E|-14-15-17-15-14-12-14-15-14-12-10-12-14-12-10-9----10-9-------9------------------------------------------|
 B|------------------------------------------------12------12-10---12-10-8-12-10-8-7-10-8-7-5-8-7-5--8-7-5--|
 G|--------------------------------------------------------------------------------------------------------7|
 D|---------------------------------------------------------------------------------------------------------|
 A|---------------------------------------------------------------------------------------------------------|
 D|---------------------------------------------------------------------------------------------------------|


 E|---------------------|-------------------------------------------------------17b19|-17b19-17b19-17-15-17-15-14|
 B|-5---7----8-----10---|-17b19-17b19-17p16-17b19-17b19-17p16-17b19-17b19-17p16------|---------------------------|
 G|-7b9-9b11-10b12-12b14|------------------------------------------------------------|---------------------------|
 D|---------------------|------------------------------------------------------------|---------------------------|
 A|---------------------|------------------------------------------------------------|---------------------------|
 D|---------------------|------------------------------------------------------------|---------------------------|


 E|-17P15-15P14----17P15P14---------14-15-17-19-20b22-12-14---|----12-14-15---------------|
 B|-------------15---------15-13/15-------------------------15|-15----------15-18-17-18-17|
 G|-----------------------------------------------------------|---------------------------|
 D|-----------------------------------------------------------|---------------------------|
 A|-----------------------------------------------------------|---------------------------|
 D|-----------------------------------------------------------|---------------------------|


 E|------------------------------------------------------------------------------------------------|
 B|-15-17-15-14-15-14----14------------------------------------------------------------------------|
 G|-------------------16----16-14-16-14-12-14-12----12---------------------------------------------|
 D|----------------------------------------------15----15-14-15-14-12-14-12-10-12-10-9-10-9-7-9-7-7|
 A|-----------------------------------------------------------------------------------------------5|
 D|------------------------------------------------------------------------------------------------|


BUENO ESTE TAB ME COSTO MUCHO SACARLO, YA QUE ES MI PRIMERA CANCION QUE SACO A OIDO, ESPERO QUE LES GUSTE
CUALQUIER DUDA O CONSULTA MI CORREO ES SEX_MASTER17@

CHAOOOOOOOOOOOOOOOOOOOOO¡¡¡¡¡¡¡¡¡¡¡¡ Y DISFRUTENLA

            
            
Suggest correction
Creating personal tab
Creating personal tab
You can edit any tab online and save it as your Personal.

You can edit, replace or remove any tab part or add personal notes – all changes will be seen only by you.

Personal tabs can be accessed anytime from any device, even offline.
Learn more »
Give kudos to tab author, rate the tab!
1 2 3 4 5
comments
print report bad tab
guest
Wanna post a correction for this tab? Suggest correction