Oops, an error
Loading. Please wait.

Este Corazón tab

by RBD
198 views 1 this week
no commentswrite comment
1 2 3 4 5
3 more votes to show rating
add to favorites
×
Save as Personal and add changes to this tab that will be seen only by you. Learn more ›
×
You can save this tab as Personal to edit and correct it or add notes. All changes will be seen only by you. Learn more »
launch autoscroll
font size
0
reset
how to read this tab
guitar tuner
edit
Autoscroll
slow
fast
+/-
esc
set tempo
stop
--------------------------------------------------------------
Hola que tal!!! pues aqui les tengo una versiona mas completa
de esta cancion que la verdad esta muy buena, espero que la
disfruten, ah y ps cuando vayan a mandar una transcripcion
de preferencia mandenla completa.
--------------------------------------------------------------

INTRO: G-D/F#-Em-G

Riff1:

e|-10-10/8--8/7--7/5----7brbrbrbr--|
B|-------------------8-------------|
G|---------------------------------|(En la parte final del riff del bend
D|---------------------------------|tambien la pueden tocar con vibrato)
A|---------------------------------|
E|---------------------------------|

G                D/F#
Como poder recuperar tu amor,
       Em                 Bm
como sacar la tristeza de mi corazón.
    C                       G
Mi mundo sólo gira pot ti-i-i-i-i-i-i.       (Riff 1)
 G                  D/F#
Como sanar este profundo dolor,
          Em                   Bm
siento correr por mis venas tu respiración.
  C                        G
Estoy tan conectada a ti-i-i-i-i-i-i...      (Riff 1)
                  Am
Que hasta en mis sueños te veo
    D
sin ti yo me muero...

*CORO*
  G                     Em
Y este corazón que te robaste cuando te marchaste
   C
tu te marchaste con mis besos,
Am                  D
con mis besos y mis sueños.
  G                    Em
Y este corazón está latiendo cada vez más lento
    C
y estoy sintiendo en mis adentros
Am            D         G
como el fuego no se apagó...
  Em                  C           Am    D
............. no se apagó................     (Riff 1)

 G                   D/F#
Como calmar esta profunda obsesión
          Em                  Bm
como le explico a mi alma que se terminó.
     C                          G
Me estoy volviendo loco por ti-i-i-i-i-i-i... (Riff 1)
                 Am
que hasta en mis sueños te veo
    D
sin ti yo me muero...

*CORO*
  G                      Em
Y este corazón que te robaste cuando te marchaste,
   C
tu te marchaste con mis besos,
Am            D
con mis besos y mis sueños.
  G                     Em
Y este corazón está latiendo cada vez más lento
    C
y estoy sintiendo en mis adentros
Am            D         G
como el fuego no se apagó...
          Em
sigue ardiendo...
           C       Am    D         G
mientras exista el amor, no se apagó el amor...
      Em            C       Am           D
uuuu ohhhh... uuuu ohhhh... y este corazón...

"Se toca de nuevo el coro"

Riff 2:

e|-----------------------------------------------------------|
B|---------------3---------------------------3---------------|
G|---0---2---0-------0---2---0---0---2---0-------0---2---0---|
D|-----------------------------------------------------------|
A|-----------------------------------------------------------|
E|-----------------------------------------------------------|

e|-------------------------------|
B|---------------3---------------|
G|---0---2---0-------0---2---0---| <----- Termina con esto
D|-------------------------------|
A|-------------------------------|
E|-------------------------------|

            
            
Suggest correction
Creating personal tab
Creating personal tab
You can edit any tab online and save it as your Personal.

You can edit, replace or remove any tab part or add personal notes – all changes will be seen only by you.

Personal tabs can be accessed anytime from any device, even offline.
Learn more »
Give kudos to tab author, rate the tab!
1 2 3 4 5
comments
print report bad tab
guest
Wanna post a correction for this tab? Suggest correction