Oops, an error
Loading. Please wait.

Míralos tab

25 views 1 this week
no commentswrite comment
1 2 3 4 5
3 more votes to show rating
add to favorites
×
Save as Personal and add changes to this tab that will be seen only by you. Learn more ›
×
You can save this tab as Personal to edit and correct it or add notes. All changes will be seen only by you. Learn more »
launch autoscroll
font size
0
reset
how to read this tab
guitar tuner
edit
Autoscroll
slow
fast
+/-
esc
set tempo
stop
Buenas gente de Lacuerda. Les traigo mi primer aporte
a la Comunidad, sea dicho de paso, el primer tema que
saqué a oido ;D. Espero que esté bien che, y cualquier
duda o corrección avisen al correo que respondo lo antes
posible. Sin más palabras:

INTRO X2

Em          RE/FA#
e|-------0---------3-0-----0------|
B|-------0-0-------0---3-----3----|
G|-----------0---2-------2-----2--|
D|-----2-----0--------------------|
A|-2-2----------------------------|
E|-0-----------2------------------|

INTRO X4

Míralos en su locura,
tratando de ser en el montón.
Cada sol expresa su furia,
en los desiertos de la decepción.

ESTRIBILLO

   Em         C5  D5
e|---0----------------------------|
B|---0----------------------------|
G|-------------5(5)-7--777--------|
D|-------------5(5)-7--777--------|
A|-2-----2-22--3(3)-5--555--------|
E|-0-----0-00---------------------|
Como aves que están por ser,

Em         C5    D5
e|---0---------------------------------|
B|---0---------------------------------|
G|-------------5(5)-7------------------|
D|-------------5(5)-7-------5-7-7h5----|
A|-2-----2-22--3(3)-5---5-7---------7--|
E|-0-----0-00---------7----------------|
desechan al miedo dejando crecer

Em         C5  D5
e|---0----------------------------|
B|---0----------------------------|
G|-------------5--7--777----------|
D|-------------5--7--777----------|
A|-2-----2-22--3--5--555----------|
E|-0-----0-00---------------------|
las ansias de la libertad,

Em         C5  D5
e|---0----------------------------|
B|---0----------------------------|
G|-------------5--7--777----------|
D|-------------5--7--777----------|
A|-2-----2-22--3--5--555----------|
E|-0-----0-00---------------------|
cada sol lleva su alma.

Em
e------0----------------------------|
B------0----------------------------|
G--------------------------7h9h7----|
D----------------------5h7-------9~~|
A--2---------------5-7--------------|
E--0------0h2---/7------------------|
Míralos comer en tu mano

e-------------------------------15ba12--------|
B------------------------15ba12---------15b~~-|
G---------------------------------------------|
D---------------------------------------------|
A---------------------------------------------|
E---------------------------------------------|
Se hace miel tu perdición

e--------------------------------------------|
B------------------------7-------------------|
G--------------------------9ba9b-7-----7-----|
D----------------------------------9h7---9~~-|
A--------------------------------------------|
E--------------------------------------------|
Cada sol a veces se nubla

e---------------------------------|
B---------------------------------|
G---------------------------------|
D-----------------4-4-4-4-4-4-444-|
A-----------------2-2-2-2-2-2-222-|
E-----------------0-0-0-0-0-0-000-|
En los desiertos de la razón

ESTRIBILLO

Como aves que están por ser,
desechan al miedo dejando crecer
las ansias de la libertad,
cada sol lleva su alma.

SOLO DE GUITARRA

e|-----------------------------------------|
B|----------9---------7-7--7--7------------|
G|----------9--7~---9b--9b-9b-9b-9bap7-9~~-|
D|-----------------------------------------|
A|--/6-7-6---------------------------------|
E|-----------------------------------------|

e|-----------------------5-555-5h7-77-----|
B|----------9---------10-5-555-5h7-77-11/-|
G|----------9--7~---9b--------------------|
D|----------------------------------------|
A|--/6-7-6--------------------------------|
E|----------------------------------------|

e|--------------------------------------------|
B|----------9---------10----------------------|
G|----------9--7~---9b---9b-9-7-9~~-7---77----|
D|------------------------------------9----9~-|
A|--/6-7-6------------------------------------|
E|--------------------------------------------|

e|-------------------------------------------|
B|----------9--------------------------------|
G|----------9--7~---9/12-11-12--11-77-9~-11~-|
D|-------------------------------------------|
A|--/6-7-6-----------------------------------|
E|-------------------------------------------|

e|----------------------------------------|
B|----------------------------------------|
G|----------------4---2-0-0h2-0h2h0-------|
D|--------------2---2---------------4-4/5-|
A|--2~~-2~~-2-3---------------------------|
E|----------------------------------------|

e|-----------------------------------------------------|
B|--------7-8-10-10/12-12~~----------------12h13h12-13-|
G|----7-9-------------------------1214--12-------------|
D|--7-----------------------121415----15---------------|
A|-----------------------------------------------------|
E|-----------------------------------------------------|

e|--12-14-15-14-12----------15-14-15-14h15h15-12-------------------|
B|-----------------15-15b~~----------------------15-13-12-13-15-13-|
G|-----------------------------------------------------------------|
D|-----------------------------------------------------------------|
A|-----------------------------------------------------------------|
E|-----------------------------------------------------------------|

e|------------------------7----------------------------------------|
B|-12h13h12-12b----7-7--7------------------------------------------|
G|----------12b-9b---9b-9b-9b-9ba-7-9~~-----7-7-----7-7/9~~~~~~----|
D|--------------------------------------7h9-----7/9----------------|
A|-----------------------------------------------------------------|
E|-----------------------------------------------------------------|

FIN DEL SOLO

Em
  ya los ves como se hacen
Em                        Em
  Tras el destino del que nunca se sabe
Em
  Cada sol que guarda el cielo
Em                  Em
  Tiene un desierto para brillar

ESTRIBILLO

Como aves que están por ser,
desechan al miedo dejando crecer
las ansias de la libertad,
cada sol lleva su alma.

SOLO DE SAXO

BASE [Em C5]X5

FINAL

  Em         C5  D5
e|--------------------------------|
B|--------------------------------|
G|--------------------------------|
D|-----------7-7-7h9--------------|
A|-7-7-7-7h9----------------------|
E|--------------------------------|

-----------------------------------------------------------

Estiradas --------------------------------------->   B
Estirar y bajar --------------------------------->  ba
Slide ------------------------------------------->   /
Vibrato ----------------------------------------->   ~
Palm mute --------------------------------------->  Tocar más

------------------------------------------------------------

  Em         RE/FA#      C5          D5
|-----|     |-----|    |-----|    |-----|
|-----|     |--3--|    |-----|    |-----|
|-----|     |--2--|    |--5--|    |--7--|
|--2--|     |-----|    |--5--|    |--7--|
|--2--|     |-----|    |--3--|    |--5--|
|--0--|     |--2--|    |-----|    |-----|

-------------------------------------------------------------

Eso es todo gente. El tema está bien sacado, aunque
puede tener algún que otro error pelotudo en el solo
de Chizzo, pero lo demás bien.

AGUANTE LA RENGA CARAJO!!!

            
            
Suggest correction
Creating personal tab
Creating personal tab
You can edit any tab online and save it as your Personal.

You can edit, replace or remove any tab part or add personal notes – all changes will be seen only by you.

Personal tabs can be accessed anytime from any device, even offline.
Learn more »
Give kudos to tab author, rate the tab!
1 2 3 4 5
comments
print report bad tab
guest
Wanna post a correction for this tab? Suggest correction