Oops, an error
Loading. Please wait.

Moscas Verdes Para El Charlatán tab

version 3
version 3

Whole song

34 views 1 this week
no commentswrite comment
1 2 3 4 5
3 more votes to show rating
add to favorites
×
Save as Personal and add changes to this tab that will be seen only by you. Learn more ›
×
You can save this tab as Personal to edit and correct it or add notes. All changes will be seen only by you. Learn more »
launch autoscroll
font size
0
reset
how to read this tab
guitar tuner
edit
Autoscroll
slow
fast
+/-
esc
set tempo
stop
Intro:


E||---------------------------|--------------------------|
B||----/5----1--3-------------|--------------------------|
G||----------------2----------|--------------------------|
D||---------------------4-----|----0--2--0--2----2--0----|
A||------------------------2--|-------0-----0------------|
E||---------------------------|--------------------------|


--------------------------|------------------------|
--3br----1--3-------------|------------------------|
---------------2----------|------------------------| X3
--------------------4-----|--0--2--0--2----2--0----|
-----------------------2--|-----0-----0------------|
--------------------------|------------------------|
Verso 1:

LA5                Riff 1
 Palomitas de maiz,
LA5                   Riff 2
para esa boca abierta
LA5                    Riff 1
y un espejo retrovisor
LA5                Trino      fill
para que recuerde       Queee        metió la pata.

Riff 1                    Riff 2                Trino
------------------------|-----------------|-------------------------------|
-3b--3--1---------------|-----------------|-------------------------------|
-----------2------0-----|-----------------|-0h3p0-0h3p0 0h3p0 0h3p0 0h3p0-|
--------------0-2----2--|-2----0--2--0--2-|-------------------------------|
---------------------0--|-0----0--0--0--0-|-------------------------------|
------------------------|-----------------|-------------------------------|
   Fill
|--8-8-~-|
|--8-8-~-|
|--------|
|--------|
|--------|
|--------|

Verso 2(igual)


moscas verdes
para ese buche
y un tesoro de su cagada
para que recuerde
que metió la pata.

Puente:

MI7                              RE7
Se le fue la lengua hablando de más
de sus desaciertos
  E7  D7
|---|----|
|-5-|----|
|-7-|-5/-|
|-6-|-4/-|
|-7-|-5/-|
|---|----|
repite Intro

Verso 4 y 5 iguales

Puente: igual

....Después

D Db C
A Ab G
E7

A5      D7
    Yo no sé para qué habló
si después se arrepintió
     LA5   Riff 3
de su letra
RE5
   a lo mejor temió que su suerte
   le diera palos a su inconciente
     MI7
 no lo dejara dormir


 Riff 3
|-------------------------------------|
|-------------------------------------|
|-------------------------------------|
|-------------------------------------|
|--5-5p0----0--5-5p0----0--5-5p0----0-|
|--------0-----------0-----------0----|


Solo:

|-------/12----8------------------/12-/12-|
|-------------------10----8--10-----------|
|-----------------------------------------|
|-----------------------------------------|
|-----------------------------------------|
|-----------------------------------------|

----------------------8-------------8---------|
------10----10-8/10-----10----8h10----10------|
----------------------------------------------|
----------------------------------------------|
----------------------------------------------|
----------------------------------------------|

---------------8/10-----------------------|
--10-------8--------10----8--13--8--10--|
------------------------------------------|
------------------------------------------|
------------------------------------------|
------------------------------------------|

---------7--8-7----------12--14---------|
--8--10---------10--/13----------13~----|
----------------------------------------|
----------------------------------------|
----------------------------------------|
----------------------------------------|


------------------------------------/7--|
--1210--10~--------15----5--5--5------|
----------------------------------------|
----------------------------------------|
----------------------------------------|
----------------------------------------|

---------------------------------8--5~-|---------------------------|
--7br----4-----------5-7-5--8-5--------|---------------------------|
------------7~--5-7--------------------|---------------------------|
---------------------------------------|------------------------7--|
---------------------------------------|--/7--5-----5-----------7--|
---------------------------------------|---------8-----8--5--3--5--|

            
            
Suggest correction
Creating personal tab
Creating personal tab
You can edit any tab online and save it as your Personal.

You can edit, replace or remove any tab part or add personal notes – all changes will be seen only by you.

Personal tabs can be accessed anytime from any device, even offline.
Learn more »
Give kudos to tab author, rate the tab!
1 2 3 4 5
comments
print report bad tab
guest
Wanna post a correction for this tab? Suggest correction