Oops, an error
Loading. Please wait.

Sueño Repetido tab

20 views 1 this week
no commentswrite comment
1 2 3 4 5
3 more votes to show rating
add to favorites
×
Save as Personal and add changes to this tab that will be seen only by you. Learn more ›
×
You can save this tab as Personal to edit and correct it or add notes. All changes will be seen only by you. Learn more »
launch autoscroll
font size
0
reset
how to read this tab
guitar tuner
edit
Autoscroll
slow
fast
+/-
esc
set tempo
stop
Intro:

e--10-8-8---8-10----------------------------------
B---------10----10---------8--10--------8--10-----
G------------------10---10-------10--10--------10-
D-------------------------------------------------
A-------------------------------------------------
E-------------------------------------------------

e--------------------------|
B------10--8-8---8h10------|
G---10---------10-----10---|
D--------------------------|
A--------------------------|
E--------------------------|


F           C             Dm
Hola como estás, que raro verte
       A#             Gm
Esa semblanza blanca, blanca
    C
Da amores a tu palidez.
F            C           D#
Y la casualidad, no es casual
                   D      C#
Si lo miras mejor, sabría que
    G        F                  A#
VendríAs por aquí, a ver si me veías.

Dm   Am              G
Luna llena estoy de confesión
A#                    C
Y como es sábado es peor


ESTRIBILLO:

  F                            Dm
Yo siempre tengo un sueño repitiéndose
  A#                   Am           C
Tocando su carita, y armando sus sonrisas rotas
Gm                             F
Yo siempre tengo un sueño repitiéndose
C                                F
Me pongo a perseguirla y no la encuentro
        Dm    C                A#
Y me despierto y aún despierto,
               C
Creo seguir durmiendo.


e--10-8-8---8-10----------------------------------
B---------10----10---------8--10--------8--10-----
G------------------10---10-------10--10--------10-
D-------------------------------------------------
A-------------------------------------------------
E-------------------------------------------------

e--------------------------|
B------10--8-8---8h10--8---|
G---10---------10----------|
D--------------------------|
A--------------------------|
E--------------------------|


F          C        D#                D
La posibilidad de hacer mi sueño realidad
               A#m  F
va lejos, como tú   palida luna
G             C
lejos, lejos, lejos


Dm   Am              G
Luna llena estoy de confesión
A#                    C
Y como es sábado es peor


  F                            Dm
Yo siempre tengo un sueño repitiéndose
  A#                   Am           C
Tocando su carita, y armando sus sonrisas rotas
Gm                             F
Yo siempre tengo un sueño repitiéndose
C                                F
Me pongo a perseguirla y no la encuentro
        Dm    C                A#
Y me despierto y aún despierto,
               C
Creo seguir durmiendo.


Solo: G#-D#- F#-F-A#m- C#-D#- C


  F                            Dm
Yo siempre tengo un sueño repitiéndose
  A#                   Am           C
Tocando su carita, y armando sus sonrisas rotas
Gm                             F
Yo siempre tengo un sueño repitiéndose
C                                F
Me pongo a perseguirla y no la encuentro
        Dm    C                A#
Y me despierto y aún despierto,
               C
Creo seguir durmiendo.


F           C             Dm
Hola como estás, que raro verte
       A#             Gm      C   F
Esa semblanza blanca, blanca, blanca.


NOTA: los acordes de las primeras estrofas es mejor
tocarlos medio arpegiados.
El solo que hace antes del último coro no lo pude sacar.

Disfrutenla!

            
            
Suggest correction
Creating personal tab
Creating personal tab
You can edit any tab online and save it as your Personal.

You can edit, replace or remove any tab part or add personal notes – all changes will be seen only by you.

Personal tabs can be accessed anytime from any device, even offline.
Learn more »
Give kudos to tab author, rate the tab!
1 2 3 4 5
comments
print report bad tab
guest
Wanna post a correction for this tab? Suggest correction