Oops, an error
Loading. Please wait.

Bonbón De Azucar tab

85 views 1 this week
no commentswrite comment
1 2 3 4 5
3 more votes to show rating
add to favorites
×
Save as Personal and add changes to this tab that will be seen only by you. Learn more ›
×
You can save this tab as Personal to edit and correct it or add notes. All changes will be seen only by you. Learn more »
launch autoscroll
font size
0
reset
how to read this tab
guitar tuner
edit
Autoscroll
slow
fast
+/-
esc
set tempo
stop
Wola gente
aqui subiendo esta rolita
muy chida por cierto
bueno espero les guste mi version... =D

  ACORDES
   F# G#m
1)-2-|-4-|
2)-2-|-4-|
3)-3-|-4-|
4)-4-|-6-|
5)-4-|-6-|
6)-2-|-4-|

INTRO:

F# - G#m - G#m - F#

1)---------------------------------------->
2)------------------7-6------------------->
3)-------------6--------8-6--------------->
4)-----4-6-6/8---8----------6/8-6-6-4-4/6->
5)-4-6------------------------------------>
6)---------------------------------------->


1)---------7-6--------------9----|
2)-----7-------9-7-9-7-9/11---11-|
3)-6-8---8-----------------------|
4)-------------------------------|
5)-------------------------------|
6)-------------------------------|

F#                    G#m
 Hoy alce mi voz Gritando a la ciudad
G#m                         F#
    Pues nunca me hablo de ti
F#                           G#m
 Pues tu llegaste y me cambiaste la ansiedad
G#m                          F#
    Con mucho "love and piece"

         F#
Pues me haces reir Me haces llorar
  G#m                G#m                    F#
A las demas discriminar  Es lo que me haces tu

       F#
En una cuerda floja caminar
  G#m             G#m                     F#
Y por ti hasta matar  Es lo que me haces tu

     F#                         G#m
Y yo no pense Que fuera a ser asi
                   G#m
Mi cuerpo adicto a ti
                   F#
Es lo que me haces tu Uhí, uhí, uhí, uhí, uhí

    F#                         G#m
Y yo no pense Que fuera a ser asi
                   G#m
Mi cuerpo adicto a ti
     F#
Eres tu...

F#
Shubi - ru - ru bombon de azucar
G#m
Shubi - ru - ru bombon de azucar
G#m                         F#
Shubi - ru - ru bombon solo tu

F#
 Yo se que a veces
      G#m               G#m
Soy dificil de entender
                        F#
Pero tu siempre me comprendes

F#                    G#m
 Y cada vez que disfruto
                  G#m
De tu presencia, esencia
                  F#
Hace brillar tu ausencia

Cuando no estas

         F#
Pues me haces reir Me haces llorar
  G#m                G#m                    F#
A las demas discriminar  Es lo que me haces tu

       F#
En una cuerda floja caminar
  G#m             G#m            F#
Y por ti hasta mataaaaaaar  eres tu

     F#                         G#m
Y yo no pense Que fuera a ser asi
                   G#m
Mi cuerpo adicto a ti
                   F#
Es lo que me haces tu Uhí, uhí, uhí, uhí, uhí

    F#                         G#m
Y yo no pense Que fuera a ser asi
                   G#m
Mi cuerpo adicto a ti
     F#
Eres tu...

F#
Shubi - ru - ru bombon de azucar
G#m
Shubi - ru - ru bombon de azucar
G#m                         F#
Shubi - ru - ru bombon solo tu...

1)----------x-x-------x-x-------x-x-------|
2)----------x-x-------x-x-------x-x-------|
3)----------x-x-------x-x-44444-x-x-66666-|
4)----44444-x-x-66666-x-x-44444-x-x-66666-|
5)----44444-x-x-66666-x-x-22222-x-x-44444-|
6)-10/22222-x-x-44444-x-x-------x-x-------|

1)-------x-x-------x-x-------x-x-------|
2)-------x-x-------x-x-------x-x-------|
3)-------x-x-------x-x-44444-x-x-66666-|
4)-44444-x-x-66666-x-x-44444-x-x-66666-|
5)-44444-x-x-66666-x-x-22222-x-x-44444-|
6)-22222-x-x-44444-x-x-------x-x-------|

1)-------x-x-------x-x-------x-x-------|
2)-------x-x-------x-x-------x-x-------|
3)-------x-x-------x-x-44444-x-x-66666-|
4)-44444-x-x-66666-x-x-44444-x-x-66666-|
5)-44444-x-x-66666-x-x-22222-x-x-44444-|
6)-22222-x-x-44444-x-x-------x-x-------|
   mira  lo  que   has  hecho   tu

1)-------x-x-------x-x-------x-x-------|
2)-------x-x-------x-x-------x-x-------|
3)-------x-x-------x-x-44444-x-x-66666-|
4)-44444-x-x-66666-x-x-44444-x-x-66666-|
5)-44444-x-x-66666-x-x-22222-x-x-44444-|
6)-22222-x-x-44444-x-x-------x-x-------|
    en mi    mente      un  rebolú

1)-------x-x-------x-x-------x-x-------|
2)-------x-x-------x-x-------x-x-------|
3)-------x-x-------x-x-44444-x-x-66666-|
4)-44444-x-x-66666-x-x-44444-x-x-66666-|
5)-44444-x-x-66666-x-x-22222-x-x-44444-|
6)-22222-x-x-44444-x-x-------x-x-------|
   mira  lo  que   has  hecho   tu

1)-------x-x-------x-x-------x-x-------|
2)-------x-x-------x-x-------x-x-------|
3)-------x-x-------x-x-44444-x-x-66666-|
4)-44444-x-x-66666-x-x-44444-x-x-66666-|
5)-44444-x-x-66666-x-x-22222-x-x-44444-|
6)-22222-x-x-44444-x-x-------x-x-------|
    en mi    mente      un  rebolú

Solo:
1)------------------------------------------->
2)-----7---9---9/11-9-7-9-10h11h10-8-6-8----->
3)-4/6---6---6---------------------------5/7->
4)------------------------------------------->
5)------------------------------------------->
6)------------------------------------------->

1)---------------7h6-------------|
2)-------7---9-7-----9-7-9-------|
3)---6-8---8---------------6/8-6-|
4)-6-----------------------------|
5)-------------------------------|
6)-------------------------------|

F#
Shubi - ru - ru bombon de azucar
G#m
Shubi - ru - ru bombon de azucar
G#m                         F#
Shubi - ru - ru bombon solo tu...

1)----------x-x-------x-x-------x-x-------|
2)----------x-x-------x-x-------x-x-------|
3)----------x-x-------x-x-44444-x-x-66666-|
4)----44444-x-x-66666-x-x-44444-x-x-66666-|
5)----44444-x-x-66666-x-x-22222-x-x-44444-|
6)-10/22222-x-x-44444-x-x-------x-x-------|
                                    es lo que me haces tu

1)-------x-x-------x-x-------x-x-------|
2)-------x-x-------x-x-------x-x-------|
3)-------x-x-------x-x-44444-x-x-66666-|
4)-44444-x-x-66666-x-x-44444-x-x-66666-|
5)-44444-x-x-66666-x-x-22222-x-x-44444-|
6)-22222-x-x-44444-x-x-------x-x-------|
                                     es lo que me haces tu

1)-------x-x-------x-x-------x-x-------|
2)-------x-x-------x-x-------x-x-------|
3)-------x-x-------x-x-44444-x-x-66666-|
4)-44444-x-x-66666-x-x-44444-x-x-66666-|
5)-44444-x-x-66666-x-x-22222-x-x-44444-|
6)-22222-x-x-44444-x-x-------x-x-------|
   mira  lo  que   has  hecho   tu   (es lo que me haces tu)

1)-------x-x-------x-x-------x-x-------|
2)-------x-x-------x-x-------x-x-------|
3)-------x-x-------x-x-44444-x-x-66666-|
4)-44444-x-x-66666-x-x-44444-x-x-66666-|
5)-44444-x-x-66666-x-x-22222-x-x-44444-|
6)-22222-x-x-44444-x-x-------x-x-------|
    en mi    mente      un  rebolú   (es lo que me haces tu)

1)-------x-x-------x-x-------x-x-------|
2)-------x-x-------x-x-------x-x-------|
3)-------x-x-------x-x-44444-x-x-66666-|
4)-44444-x-x-66666-x-x-44444-x-x-66666-|
5)-44444-x-x-66666-x-x-22222-x-x-44444-|
6)-22222-x-x-44444-x-x-------x-x-------|
   mira  lo  que   has  hecho   tu   (es lo que me haces tu)

1)-------x-x-------x-x-------x-x-------|
2)-------x-x-------x-x-------x-x-------|
3)-------x-x-------x-x-44444-x-x-66666-|
4)-44444-x-x-66666-x-x-44444-x-x-66666-|
5)-44444-x-x-66666-x-x-22222-x-x-44444-|
6)-22222-x-x-44444-x-x-------x-x-------|
    en mi    mente      un  rebolú   (es lo que me haces tu)

1)--------------------------------------------|
2)--------------------------------------------|
3)-----------------------4-4-4-4-4--6-6-6-6-6-|
4)-4-4-4-4-4--6-6-6-6-6--4-4-4-4-4--6-6-6-6-6-|
5)-4-4-4-4-4--6-6-6-6-6--2-2-2-2-2--4-4-4-4-4-|
6)-2-2-2-2-2--4-4-4-4-4-----------------------|
   mira     lo  que     has  hecho   tu   (es lo que me haces tu)

1)-----------------------------------------------------2-|
2)-----------------------------------------------------2-|
3)-----------------------4-4-4-4-4--6-6-6-6-6----------3-|
4)-4-4-4-4-4--6-6-6-6-6--4-4-4-4-4--6-6-6-6-6----------4-|
5)-4-4-4-4-4--6-6-6-6-6--2-2-2-2-2--4-4-4-4-4----------4-|
6)-2-2-2-2-2--4-4-4-4-4--------------------------------2-|
    en mi     mente  un     rebolú  es lo que me haces tu...


dudas, sugerencias o comentarios
favor de enviarlos a mi correo, esto me ayudara a mejorar, gracias

by: sOnAc 32
Suggest correction
Creating personal tab
Creating personal tab
You can edit any tab online and save it as your Personal.

You can edit, replace or remove any tab part or add personal notes – all changes will be seen only by you.

Personal tabs can be accessed anytime from any device, even offline.
Learn more »
Give kudos to tab author, rate the tab!
1 2 3 4 5
comments
print report bad tab
guest
Wanna post a correction for this tab? Suggest correction