Oops, an error
Loading. Please wait.

Me Estás Atrapando Otra Vez tab

95 views 6 this week
no commentswrite comment
1 2 3 4 5
2 more votes to show rating
add to favorites
×
Save as Personal and add changes to this tab that will be seen only by you. Learn more ›
×
You can save this tab as Personal to edit and correct it or add notes. All changes will be seen only by you. Learn more »
launch autoscroll
font size
0
reset
how to read this tab
guitar tuner
edit
Autoscroll
slow
fast
+/-
esc
set tempo
stop
ACORDES:

          Eadgbe   Eadgbe
D         xx0232
D/F#      xx4232
Em        022000
Em7       020000
F#        244322
F#m/C#    x44222
A         x02220
A7        x02020 o 575655
G         320003 o 355433
Bm7       x24232
B5        xxx477
C/-5(no3) xxx578

------------------------------------------------------------------|
                                                                  |
~ = Vibratos                           b = Estiradas o Bends      |
h = Lidado ascendente o Hammer on      r = Soltar la estirada     |
p = Lidago descendente o Pull off      / = Arrastres              |
                                                                  |
------------------------------------------------------------------|

Intro: D - F#m/C# - Bm7 X3  G - A7

00:03

e-----------------------------------------------------------------|
B--10br-----------------------------------------------------------|
G-------9h10p9/7-------------9br-7-9~~~----9br-7------------------|
D----------------9~~~~~----7-------------7--------9~~~~----/7-----|
A-------------------------------------------------------------5---|
E---------------------------------------------------------------7-|

e----------------------------------------------------------------|
B--------12-15-17-17br-------------------------------------------|
G--12-14----------------17-16------------------------------------|
D-----------------------------15p14-12-14-14b-14-12----12~~~~~~~-|
A---------------------------------------------------14-----------|
E----------------------------------------------------------------|

e-------------------------------------------|
B-------------------------------------------|
G----------7~~~-----------------------------|
D---/5-7-9------------------14b-12-14~~~~~~-|
A---------------10--7~~~--------------------|
E-------------------------------------------|

---------------------------------------------------------------------------

D          F#m7       Bm7
      Me despierto pensando
D         F#m7      Bm7
   si hoy te voy a ver,
D            F#m7      Bm7
   pero es inútil negarlo:
         Em7                 A7
tu me estás atrapando otra vez.

---------------------------------------------------------------------------

                                      e-----------------------------------|
                                      b--7br-7b---------------------------|
Eres un ángel maldito,                g---------7-9-7---------------------|
eres la dama mas cruel (ARREGLO 1)--> d---------------9-7-----------------|
Un arma de doble filo:                a-------------------9-7---------7/5-|
contigo sólo puedo perder,            E-----------------------10-7-10-----|

---------------------------------------------------------------------------

         Em7                 A7
tu me estás atrapando otra vez
             G            D/F#
Y aunque alguien me advirtió,              e--------------------|
      Em7                                  B------10------8~~~~-|
nunca dije que no (ARREGLO 2) -----------> g--7h9----9p7--------|
         G           F#         Em         D--------------------|
y ahora tengo que esconder las heridas
         G          D/F#
Y ese pulso que jugué,
           Bm7
Porque quise lo perdí,
Em7               A       D
nunca me podré alejar de ti.

---------------------------------------------------------------------------

Te extraño cuando llega la noche             e------------------------|
pero te odio de día,                         B------------------------|
después me subo a tu coche  (ARREGLO 3) ---> G------7-9/11-9br--------|
y dejo pasar la vida.                        D--7h9------------12-9-5-|

---------------------------------------------------------------------------

Debería dejarte,                          e-------7-----------------------|
irme lejos, no volver  (ARREGLO 4) -----> b-----7---7-10-7----------------|
pero es inútil negarlo:                   g--9b-------------9b-9br-7----7-|
tu me estás atrapando otra vez _          d--------------------------9----|
contigo solo puedo perder
                                  ARREGLO 5  E-------10-------------|
                                  -_-_-_-_-> b--10b------10br-------|
                                              g----------------9br/7-|
                                              d----------------------|

---------------------------------------------------------------------------

             G            D/F#
Y aunque alguien me advirtió,
      Em7
nunca dije que no
         G           F#         Em
y ahora tengo que esconder las heridas
         G          D/F#
Y ese pulso que jugué,                             ARREGLO 6
           Bm7                                 E-------7------------|
Porque quise lo perdí,                         b-----7----10-7------|
Em7                A      D   C/-5(no3) - B5   G--9b-----------9b-7-|
nunca me podre alejar de ti                    d--------------------|
Em7                A      D                    A--------------------|
nunca me podre alejar de ti                    E--------------------|

ARREGLO 6: Este punteo está muy escondido mientras toca el C/-5(no3) - B5

---------------------------------------------------------------------------

Solo de Guitarra:

03:23

e-------------------------------------------------------------------------|
B---------------------------------10br-7----7--10br-7--10br-7-----------7-|
G--9b-9b-9b-9--7-9-9brp-7----------------10--------------------9br-7-9----|
D-------------------------9~~~~~------------------------------------------|
A-------------------------------------------------------------------------|
E-------------------------------------------------------------------------|

e-----------------------------------------------------------------------|
B-----------------------------------7-10--------17b---17-15-17----15-17-|
G--7h9p7h9p7h9p7---------------7-------------14----------------16-------|
D-----------------9--------7-9---9--------15----------------------------|
A--------------------7-7-9----------------------------------------------|
E-----------------------------------------------------------------------|

e-------------------------------------------------------------------------|
B--15--------------------------------------7br-br-br-7-9-10-7-------------|
G----16--------------------------------------------------------7-4-7--9-7-|
D--------15-15p12-9-9-12-14-12~~/12-9-9~~---------------------------------|
A-------------------------------------------------------------------------|
E-------------------------------------------------------------------------|

e-------------------------------------------------------------------------|
B---7-10b-7-10br-7------15----15b-15-15-19-17-19-15-12-15--12-------------|
G-9-----------------/14----14---------------------------------14----------|
D----------------------------------------------------------------14h15p14-|
A-------------------------------------------------------------------------|
E-------------------------------------------------------------------------|

e-----------------------------7---------7---------7-----------7-----------|
B---------------------------7---10-7------10-7------10-9-7------10-9-7----|
G------------------------9b----------9b--------9b----------9b----------9b-|
D--12----------12-14-12---------------------------------------------------|
A-----14-12-14------------------------------------------------------------|
E-------------------------------------------------------------------------|

e--7-----------------------------------14-15-14----------14b-14----------|
B----10-9-7-------10---10---10---10-------------15--------------15-------|
G------------9-9b----9----9----9----9--------------16-14-----------16-14-|
D------------------------------------------------------------------------|
A------------------------------------------------------------------------|
E------------------------------------------------------------------------|

e----------------------------------------------------------|
B---------------------12----12/15-15--15-12-15-12-15/19-15-|
G------------------11----11--------------------------------|
D--14h16p14-12-14b-----------------------------------------|
A----------------------------------------------------------|
E----------------------------------------------------------|

                           Arreglo 7:

                        e--15/0-------------------------------------------|
Y mientras canta,       B--15/0-------------------7-10-7-10br--7----------|
el Solo sigue...        G----------/9---------7-9-----------------9br-7---|
(Arreglo 7 y Arreglo 8) D-----------------7h9---------------------------9-|
                        A-------------------------------------------------|
                        E-------------------------------------------------|

Arreglo 8:

e--------------------------------------------|
B--7-8-9-10-7-10-12b-12b-12b-12b-12b---------|
G-------------------------------------14~~~~-|
D--------------------------------------------|
A--------------------------------------------|
E--------------------------------------------|

Em7                 A     D     C/-5(no3) - B5  (Arreglo 7)
nunca me podre alejar de ti
Em7                 A     D     C/-5(no3) - B5  (Arreglo 8)
nunca me podre alejar de ti
Em7                 A     D
nunca me podre alejar de ti

---------------------------------------------------------------------------

D - F#m/C# - Bm7 (Muchas veces como base hasta el final del tema) Fade Out

4:26

e---------------------------------15/-------------------------------|
B---------------------------------15/----15-12----------------------|
G---------------------------------15/----------14-------------------|
D----12-14-14b-14b-14br-12/14/12------------------15-14-12-12/14/12-|
A--x----------------------------------------------------------------|
E-------------------------------------------------------------------|

e-------------------------------------------------------------------|
B-------------------------------------------------------------------|
G-------------------------------/11-----------------------------/11-|
D-------9-12-9----12-9----12-9----------9-12-9----12-9----12-9------|
A--9-12--------12------12------------12--------12------12-----------|
E-------------------------------------------------------------------|

e---------------------7-----------7---10----------------------------------|
B-------------------7---10-7----7--------12-10-12-12~~--10----------------|
G----------------9b----------9b----------------------------11-9h10p9------|
D-----9-12~~~~~------------------------------------------------------12-9-|
A--12---------------------------------------------------------------------|
E-------------------------------------------------------------------------|

e-------------------------13br-br-br-br--12-------12---------15/------|
B-------------------12-15-------------------15-12----12-15---15/------|
G-10-------------14------------------------------------------15/--etc-|
D----12------/14------------------------------------------------------|
A---------------------------------------------------------------------|
E---------------------------------------------------------------------|

NOTA: Es muy probable que haya un margen de error en el tiempo, de 2
segundos aprox. EJ.: en vez de que a los 4:26 aparesca el solo, puede ser
que a ustedes les aparesca a los 4:28.

Bueno este es un tema que saqué de oído porque tenía muchas ganas de
tocarlo, pero como nadie habia sacado los solos, arreglos y demás... me
senté a sacarlo yo :P ...y bue acá está....creo que está bastante bien
sacado...espero que les sirva...
Consultas o lo que sea a:
luisbelito@ --> Luis Emilio Laino - Bahía Blanca

"...y ese pulso que jugué, por mi culpa lo perdí..."

            
            
Suggest correction
Creating personal tab
Creating personal tab
You can edit any tab online and save it as your Personal.

You can edit, replace or remove any tab part or add personal notes – all changes will be seen only by you.

Personal tabs can be accessed anytime from any device, even offline.
Learn more »
Give kudos to tab author, rate the tab!
1 2 3 4 5
comments
print report bad tab
guest
Wanna post a correction for this tab? Suggest correction