Oops, an error
Loading. Please wait.

Mi Enfermedad tab

163 views 1 this week
no commentswrite comment
1 2 3 4 5
3 more votes to show rating
add to favorites
×
Save as Personal and add changes to this tab that will be seen only by you. Learn more ›
×
You can save this tab as Personal to edit and correct it or add notes. All changes will be seen only by you. Learn more »
launch autoscroll
font size
0
reset
how to read this tab
guitar tuner
edit
Autoscroll
slow
fast
+/-
esc
set tempo
stop
Intro: D Dsus4 (4)

    G              A              [D  Dsus4]   x 2 
        
e--------------------------------------------|
B--12-10-12-10-12p14-12-10-12-10s3-3~--3-3~--|
G--------------------------------------------| x 2
D--------------------------------------------|
A--------------------------------------------|
E--------------------------------------------|

Coro 1:

                         G              A               Bm
Estoy vencido porque el mundo mi hizo así, no puedo cambiar.
                      G          A             Bm
Soy el remedio sin receta y tu amor mi enfermedad.
                         G             A           Bm
Estoy vencido porque el cuerpo de los dos es mi debilidad.
      G        A             D Dsus4 D Dsus4
Esta vez el dolor va a terminar.


Verso 1:

G     A                  D
   Parece que la fiesta terminó.
G        A               D
   Perdimos en el túnel del amor.
G               A                   Bm
   Y dicen las hojas del libro que más leo yo:
          G         A           D
   'Esta vez el esclavo se escapó'.


Coro 2 (Como Coro 1)

Me entrego al vino porque el mundo me hizo así, no puedo cambiar.
Soy el remedio sin receta y tu amor mi enfermedad.
Estoy vencido porque el cuerpo de los dos es mi debilidad.
Esta vez el dolor va a terminar.


Verso 2 (Como verso 1):

           G                  A                 D
De nuestro árbol         una hoja      se      cayó.

e------------7---7----7~--------9----9----9~------2~--|
B----------8---8----8--------10---10---10---------3~--|
G-------------------------------------------------2~--|
D-----------------------------------------------------|
A-----------------------------------------------------|
E-----------------------------------------------------|

         G                   A                  D
En MI boca               LA manzana        se pudrió.

e----------10---10----10~-------12----12-----12~--2~--|
B--------8----8-----8--------10----10-----10------3~--|
G-------------------------------------------------2~--|
D-----------------------------------------------------|
A-----------------------------------------------------|
E-----------------------------------------------------|

G            A               Bm
  Tendrías que aprender a pedir perdón.
        G        A           D
  Esta vez la cadena se rompió.


Solo Harmónica (Arranged for Guitar):

   D  Dsus4                           G             A                D  Dsus4

e--10h12-10h12h-10h12-10h12-10h12-10h12~--10h12-10-10~--12-10-12s14-14~--|
B------------------------------------------------------------------------|
G------------------------------------------------------------------------|
D------------------------------------------------------------------------|
A------------------------------------------------------------------------|
E------------------------------------------------------------------------|

                   G                  A             D  Dsus4

e--15-15-15-15-15-15~-14-14-15h17-17-17~--15-14p10-10~-------------------|
B------------------------------------------------------------------------|
G------------------------------------------------------------------------|
D------------------------------------------------------------------------|
A------------------------------------------------------------------------|
E------------------------------------------------------------------------|

G            A               Bm
  Tendrías que aprender a pedir perdón.
        G        A          [D Dsus4] X 4    
  Esta vez la cadena se rompió.


Coro 1:
                         G              A               Bm
Estoy vencido porque el mundo mi hizo así, no puedo cambiar.
                      G          A             Bm
Soy el remedio sin receta y tu amor mi enfermedad.
                         G             A           Bm
Estoy vencido porque el cuerpo de los dos es mi debilidad.
      G        A             D Dsus4 D Dsus4
Esta vez el dolor va a terminar.

      G        A             D Dsus4 D Dsus4
Esta vez el dolor va a terminar.


Outro:

  D  Dsus4                            G             A             D

e--10h12-10h12h-10h12-10h12-10h12-10h12~--10h12-10-10~--15-14p10-10~-----|
B------------------------------------------------------------------------|
G------------------------------------------------------------------------|
D------------------------------------------------------------------------|
A------------------------------------------------------------------------|
E------------------------------------------------------------------------|


Dudas o comentarios a mi E-mail OK

Dedicada a Jennifer M. Arias hasta Catacamas, Olancho, Honduras.

            
            
Suggest correction
Creating personal tab
Creating personal tab
You can edit any tab online and save it as your Personal.

You can edit, replace or remove any tab part or add personal notes – all changes will be seen only by you.

Personal tabs can be accessed anytime from any device, even offline.
Learn more »
Give kudos to tab author, rate the tab!
1 2 3 4 5
comments
print report bad tab
guest
Wanna post a correction for this tab? Suggest correction