Oops, an error
Loading. Please wait.

El Chofer tab

265 views 1 this week
no commentswrite comment
1 2 3 4 5
2 more votes to show rating
add to favorites
×
Save as Personal and add changes to this tab that will be seen only by you. Learn more ›
×
You can save this tab as Personal to edit and correct it or add notes. All changes will be seen only by you. Learn more »
launch autoscroll
font size
0
reset
how to read this tab
guitar tuner
edit
Autoscroll
slow
fast
+/-
esc
set tempo
stop
Hola Soy Omar Reyes S.
Tengo 17 años weno casi 18 y vivo en Chihuahua

Espero q les Guste como quedo la canción
Creo q dure mas escribiéndola que sacándola
Y luego mas porque ya había terminado y se fue
 la luz y no se grabo y otra vez a volverla a
pasar jeje pero ahí esta para los que la pidieron

Salu2 a Mi cuñado Omar y a Mi hermana Evelyn
Salu2 a Toos


INTRO
1-0----0-0-0---0---0-0-0--0----0-0-0-0-------
2-0h2--2-0-0---0h2-2-0-0--0h2--2-0-0-2-------
3-2----2-2-2---2---2-2-2--2----2-2-2-2-------
4-2----2-2-2---2---2-2-2--2----2-2-2-2-------
5-0----0-0-0---0---0-0-0--0----0-0-0-0-------
6-0----0-0-0---0---0-0-0--0----0-0-0-0-------

      A                   D
Voy a arrancar, soy el chofer
      A                           E
manejaré en la noche, hasta el amanecer
      A               D
Tiempo no hay, para perder
               A        E          A
tengo un buen tramo de país que recorrer

       D              E
Desde Tijuana hasta Yucatán
       D              E
por carretera gano el pan
         A            D
voy a Torreón, voy a San Luís
         A                          E
rueda que rueda vuelta y vuelta soy feliz
         A           D
luego me voy a Monterrey
          A             E             A
siempre alerta por si algún burro o un buey

?Aguas   calientes y su feria de San Marcos, adiós paisano?

          A               E           D
E-5-5-7--7/9--9--9--9--9----7-7-7-7-7---5-5-5-5-5
B-7-7-9--9/10-10-10-10-10---9-9-9-9-9---7-7-7-7-7
G------------------------------------------------

          A               E           D                   A
E-5-5-7--7/9--9--9--9--9----7-7-7-7-7---5-5-5-5-5-5-5-5-5-5
B-7-7-9--9/10-10-10-10-10---9-9-9-9-9---7-7-7-7-7-7-7-7-7-7
G------------------------------------------------


       A               D
Estuve antier en Veracruz
          A                        E
Pase por Puebla, por favor baja tu luz

         A                 D
De norte a sur, voy por doquier
        A            E
voy a Morelos y a Guerrero
      A
Soy chofer

            D         E
De Ciudad Juárez a Parral
            D         E
y hasta el Distrito Federal
A
alguien me espera, en Reynosa
A
alguien me espera, en Toluca,
A
alguien me espera, en Cabo,
A
alguien me espera, en Hermosillo,
A
alguien me espera, en Tepic,
A
alguien me espera, en Huentitán,
         A   E     A
la carretera nacional

        D           E
Desde Laredo a Michoacán
        D           E
por carretera gano el pan
         A
Soy el chofer

También voy a Sonora, Sinaloa
Conaloa, Durango, Zacatecas,
Nayarit, Jalisco, Guanajuato,
Querétaro, Hidalgo, Colima
Tlaxcala, Oaxaca, Chiapas,
Tabasco, Campeche y Quintana Roo

Mientras se canta esto / va de fondo esto:

          A               E           D
E-5-5-7--7/9--9--9--9--9----7-7-7-7-7---5-5-5-5-5
B-7-7-9--9/10-10-10-10-10---9-9-9-9-9---7-7-7-7-7
G------------------------------------------------

          A               E           D
E-5-5-7--7/9--9--9--9--9----7-7-7-7-7---5-5-5-5-5-
B-7-7-9--9/10-10-10-10-10---9-9-9-9-9---7-7-7-7-7-
G------------------------------------------------

  A
E-5/9--9--9--7--5-5/9---9---9---7--5--5/9--9---9---7-5-5/9
B-7/10-10-10-9--7-7/10--10--10--9--7--7/10-10--10--9-7-7/10
G----------------------------------------------------


Viva Chihuahua (Aunq no lo menciona jeje)
Viva yo =)
Suggest correction
Creating personal tab
Creating personal tab
You can edit any tab online and save it as your Personal.

You can edit, replace or remove any tab part or add personal notes – all changes will be seen only by you.

Personal tabs can be accessed anytime from any device, even offline.
Learn more »
Give kudos to tab author, rate the tab!
1 2 3 4 5
comments
print report bad tab
guest
Wanna post a correction for this tab? Suggest correction