Oops, an error
Loading. Please wait.

Las Siete Rejas tab

26 views 3 this week
no commentswrite comment
1 2 3 4 5
3 more votes to show rating
add to favorites
×
Save as Personal and add changes to this tab that will be seen only by you. Learn more ›
×
You can save this tab as Personal to edit and correct it or add notes. All changes will be seen only by you. Learn more »
launch autoscroll
font size
0
reset
how to read this tab
guitar tuner
edit
Autoscroll
slow
fast
+/-
esc
set tempo
stop
Intro: Em - G7+/D - Em - G7+/D

Em           G7+/D       Em - G7+/D
Siete rejas, siete llaves,
Em          G7+/D
siete ríos, siete mares,
C7                    G7+/D
siete son los que te llevan,
C7                    G7+/D
siete son los que te traen,
 G                  B7/F#-E
siete son tus siete ma___les.

Siete rejas, siete llaves,
siete ríos, siete mares,
siete son los que te llevan,
siete son los que te traen,
siete son tus siete ma___les.

     Em
Que venga, que venga,
    G7+/D            Em - G7+/D
que corra, que corra,
     Em
Que venga, que venga,
    G7+/D
que corra, que corra,
C7                  G7+/D
tu valiente ha de volar,
C7                  G7+/D
tu valiente ha de volar.


Interludio 1:

E|--------3--------3--------3--|--------0--------0--------0--|
B|-----0--------0--------0-----|-----0--------0--------0-----|
G|-----------------------------|--5--------5--------5--------|1ª
D|--2--------2--------2--------|-----------------------------|Guitarra
A|-----------------------------|-----------------------------|
E|-----------------------------|-----------------------------|

-----------------------------|-----------------------------|
-----------------------------|---------------------1-------|
-----------------0-----------|--2--------------------------|2ª
--2--------------------------|-----------------------------|Guitarra
-----------------------------|-----------------------------|
-----------------------------|-----------------------------|


--------0--------0--------0--|--------0--------0--------0--|
-----0--------0--------0-----|-----0--------0--------0-----|
--5--------5--------5--------|--5--------5--------5--------|
-----------------------------|-----------------------------|
-----------------------------|-----------------------------|
-----------------------------|-----------------------------|


--------0--------0--------0--|
-----0--------0--------0-----|
--5-----------------5--------|1ª
-----------4-----------------|Guitarra
-----------------------------|
-----------------------------|

-----------------------------|------------------------------|
-----------------------------|------------------------------|
-----------------0-----------|--2---------------------------|
--2--------------------------|----------------------4-------|
-----------------------------|------------------------------|
-----------------------------|------------------------------|


----------------------------|
----------------------------|
--2-------------------------|2ª
----------------------------|Guitarra
----------------------------|
----------------------------|


--------0--------0--------0--|--------0--------0--------0--|
-----0--------0--------0-----|-----0--------0--------0-----|
--------------------2--------|--4--------4--------4--------|
--4--------5-----------------|-----------------------------|
-----------------------------|-----------------------------|
-----------------------------|-----------------------------|


--------0--------0--|
-----0--------0-----|
--7--------4--------|1ª
--------------------|Guitarra
--------------------|
--------------------|


--------0--------0--|--------0--------0--|
-----0--------0-----|-----0--------0-----|
--7--------4--------|--7--------4--------|
--------------------|--------------------|
--------------------|--------------------|
--------------------|--------------------|


--------0--------0--|--------0--------0--|
-----0--------0-----|-----0--------0-----|
--2-----------------|--------------------|1ª
-----------3--------|-----------3--------|Guitarra
--------------------|--2-----------------|
--------------------|--------------------|


--------0--------0--|--------0--------0--|
-----0--------0-----|-----0--------0-----|
--2-----------------|--------------------|
-----------3--------|-----------3--------|
--------------------|--2-----------------|
--------------------|--------------------|


--------0--------0--|-------------------|
-----0--------0-----|-------------------|
--2-----------------|-------------------|1ª
-----------3--------|-------------------|Guitarra
--------------------|-------------------|
--------------------|--7/---------------|


-----------2--------|
-----------2--------|
-----------2--------|1ª
--------------------|Guitarra
--------------------|
--2-----------------|


Em                 G7+/D  Em - G7+/D
Un valiente ya se acerca,
Em                 G7+/D
un valiente ya se acerca
C7              G7+/D
galopando siete mares,
C7               G7+/D
buscando la fortaleza
C7               G7+/D
para desatar tus manos,
C7            G7+/D
siete llaves, siete rejas,
 G               B7/F#-E
tu valiente romperá____a.

Interludio 2a: (arpegio)

Em    G7+/D  Em - G7+/D
Ah... ah...
C7+ - G7+/D - C7+ - G7+/D - Em - F#m
Ah... ah...


Interludio 2a: (rasgueo)
Em - G7  - Em - G7 
C7+ - G7+ - C7+ - G7+
Gm - G7  - Gm - G7 
C7+ - G7+ - C7+ - G7+
Gm - G7  - Gm - G7 
C7+ - G7+/D - C7+ - G7+/D (arpegio)
Gm6/A# - F#m7/A - Gm6/A# - F#m7/A [rasgueo]
C7+/E - D7+/E - C7+/E - D7+/E
Gm6/A# - F#m7/A - C7+/E - D7+/E
G - B7/F# - E (F-F#-G-G#-A-A#... perdiéndose)


Acordes:

 B7/F#  G   Em  C7  G7+/D G7  Gm6/A# F#m7/A C7+/E D7+/E
---2----3---3---0-----2----2----0------0------0-----0---|
---0----3---0---0-----0----0----8------7------5-----7---|
---2----0---0---0-----0----0----7------6------4-----6---|
---1----0---2---2-----0----0----8------7------5-----7---|
--------2---2---3----------2------------------3-----5---|
---2----3---0---3----------3----6------5------0-----0---|

            
            
Suggest correction
Creating personal tab
Creating personal tab
You can edit any tab online and save it as your Personal.

You can edit, replace or remove any tab part or add personal notes – all changes will be seen only by you.

Personal tabs can be accessed anytime from any device, even offline.
Learn more »
Give kudos to tab author, rate the tab!
1 2 3 4 5
comments
print report bad tab
guest
Wanna post a correction for this tab? Suggest correction