Oops, an error
Loading. Please wait.

Huellas tab

version 2
version 2

Whole song

136 views 1 this week
no commentswrite comment
1 2 3 4 5
3 more votes to show rating
add to favorites
×
Save as Personal and add changes to this tab that will be seen only by you. Learn more ›
×
You can save this tab as Personal to edit and correct it or add notes. All changes will be seen only by you. Learn more »
launch autoscroll
font size
0
reset
how to read this tab
guitar tuner
edit
Autoscroll
slow
fast
+/-
esc
set tempo
stop
Muy bien muchachos, he aqui una cancion que me gusta mucho y ya
hacia tiempo que queria sacarla y ponerla aqui
Recuerden bajarle la 6ta cuerda a D y hay partes que talvez les
parezcan raras, entones solo escuchen la cancion y hagan algo
similar con las notas que pongo ahi
Califiquelan y escribanme si tienen alguna pregunta
Ah y por cierto, disculpen la irregularidad de la tablatura!


Intro

e-----0----------------------------------
b-----1--2/3-3---3-------3------3---0/2--
g---2----1/2-2---2-------0------3---0/2--
d----------------------0------3----------
a--------2/3---3---0h1------------0-0----
D-0--------------------------5-----------

Verse

e-------0--------------------------------------
b-------1-----------3-----------3-------3-0/2--
g---2---------------2-----------0-------3-0/2--
d-----3-----------x-----------0-------3--------
a-------------0h3---------0h1-------------0----
D-0----------------------------------5---------
          Solo..       Teeeeennngooo

e-------1---0-------------0---------------------
b-------3---2-------------3----3------------3---
g---0h2------------------------0------------0---
d-----------------------------------------0-----
a-----------3---------0h3----0-1------1/3-------
D-0-----------------0---------------------------
        las huellas   que que  da ron

e-------1---0------------------------------------
b-------3---2-----3--3---3------3-------3--------
g---0h2-----------0--0---0------0-------0--------
d-------------------------------------0----------
a-----------4-----3--3---1--------1/3------------
D-0----------------------------------------------
        Son Solo  es pin nillas

e-------1--0-----------0-----------------
b-------3--2-----------3---3--------3----
g---0h2--------------------0--------0----
d---------------------------------0------
a----------4-------0h3---0-1----1/3--------
D-0--------------0-----------------------
     y  no tengo   que cre ar

e-------1--0------0--0--------------------
b-------3--2------3--3--3-----------------
g---0h2----0------0--0--0-----------------
d-----------------------------------------
a----------3------3--3--1-----------------
D-0---------------------------------------
        LA A mis  ma se milla
Coro


e----------0---1-------------1--0-0-----------------
b-------3--1---3------3------3--3-3---3---3-3--3--2-
g-------0--0---0------0------0--0-0---0---0-0--0--0-
d---2h3----------------------0----------------------
a-----------------0---1---0-----3-3---1-1--1--1--0--
D-0-------------------------------------------------
        no ten go por que ce derte    yonoquierope dir

e------------------------------------------------
b---2---2---2---3---3---3---3---2---2---2---2----
g---0---0---0---0---0---0---0---0---0---0---0----
d------------------------------------------------
a-0---0---0---0-1-1---1---1---1---0---0---0---0--
D------------------------------------------------
tenadaaa solo pon tus labios sobe mi espalda


e-------1---0--3---0---0---------3---1---1---0-3----------0--------------
b-------3---1--5---1---1----/-5--5---3---3---1-5----------3-3-3----------
g-----2-0---0--0---0---0----/-5--0---0---0---0-0-------0----0-0----------
d---0-------------------------------------------------------------------
a--------------------------------------------------0-3----3-1---0h1------
D-0-------0------0---0---0---------0---0---0-----0--------------------
               a...mar                te....            duelee

e----1----0--3--------------0------1----1---0-3------0---------
b----3----1--5----0h1---1---1-3----3----3---1-5------3-3-------
g---------0--0----0-----0-----5----0----0---0-0--------0-------
d-----------------------------0--------------------------------
a------------------------------------------------0-3-3-1-------
D-0----0--------0-----0---0------0---0----0--------------------


e-----0-------------------------------------------
b-----1--3-3-2/3---------3-------3----0h2---2-----
g--------0-0-0/0---------0-------3----0-----0-0---
d----------------------0-------3---3--------------
a---0----3---2/3---0h1----------------------------
D-0--------------------------5--------0---0-------
--------------------------------------------------

e-------1-----------0-0--------1-----------------
b-------3--2--------3-3--------3-2---3-3---3-3---
g---0h2----0--------0-0----0h2---0---0-0---0-0---
d------------------------------------------------
a----------3----0h3-3-1----------3-3---3-0-3-1---
D-0------------0---------0-----------------------

e--------------------1---------0---0--------------
b-3-------3----------3-2-------3---3-3-------3----
g-0-------0------0h2---0-------0---0-0-------0----
d-------0----------------------------------0------
a---1h3----------------4---0h3-3-0-1---1h3--------
D-------------0----------0------------------------

e-------1--0--------0----------------
b-------3--2--------3---3--------3---
g---0h2-----------------0--------0---
d------------------------------0-----
a----------4----0h3---0-1--1/3-------
D-0------------0---------------------

e---------0-1---------1-0-0-------------0---0---0---0-
b-------3-1-3----3----3-3-3-3---3-3--3--2---2---2---2-
g-------0-0-0----0----0-0-0-0---0-0--0--0---0---0---0-
d---2h3---------------0-------------------------------
a--------------0-1--0---3-3-1-1--1--1--0--0---0---0---
D-0---------------------------------------------------

e-------------------0---0---0---0----
b---3---3---3---3---2---2---2---2----
g---0---0---0---0---0---0---0---0----
d------------------------------------
a-0-1-1---1---1---1---0---0---0---0--
D------------------------------------


e-------1---0--3---0---0---------3---1---1---0-3-------0----------------
b-------3---1--5---1---1----/-5--5---3---3---1-5-------3-3-3-------3----
g-----2-0---0--0---0---0----/-5--0---0---0---0-0---------0-0-----0------
d---0-------------------------------------------------------------------
1a--------------------------------------------------0-3-3-1---1h3-------
D-0-------0------0---0---0---------0---0---0-----0----------------------

e-------1---0--3---0---0---------3---1---1---0-3-------0---------------
b-------3---1--5---1---1----/-5--5---3---3---1-5-------3-3-3-------3---
g-------0---0--0---0---0----/-5--0---0---0---0-0---------0-0-----0-----
d---0------------------------------------------------------------------
a--------------------------------------------------0-3-3-1---1/3-------
D-0-------0------0---0---0---------0---0---0-----0---------------------

e-------0---------------------------------------0-------
b-------1-2/3-3---3--------3-----5----0h2---2---2-------
g---------1/2-2---2--------0-----5----0h2---2-----------
d-----3------------------0-----5---5--------------------
a---0-----2/3---3----0h1--------------0---0---0---------
D-0--------------------------5--------------------------


e--------------------------13---------------
b--------------------------15---------------
g------------------7-9-10-------------------
d----------------7----------0---------------
a--------0-5-7-8----------------------------
D--0-2-3--------------------0---------------

            
            
Suggest correction
Creating personal tab
Creating personal tab
You can edit any tab online and save it as your Personal.

You can edit, replace or remove any tab part or add personal notes – all changes will be seen only by you.

Personal tabs can be accessed anytime from any device, even offline.
Learn more »
Give kudos to tab author, rate the tab!
1 2 3 4 5
comments
print report bad tab
guest
Wanna post a correction for this tab? Suggest correction