Oops, an error
Loading. Please wait.

Soñé tab

version 1
version 1

Whole song

Interactive

487 views 6 this week
no commentswrite comment
1 2 3 4 5
2 more votes to show rating
add to favorites
×
Save as Personal and add changes to this tab that will be seen only by you. Learn more ›
×
You can save this tab as Personal to edit and correct it or add notes. All changes will be seen only by you. Learn more »
launch autoscroll
font size
0
reset
how to read this tab
guitar tuner
edit
Autoscroll
slow
fast
+/-
esc
set tempo
stop
bueno aqui les dejo mi primer transcribcion . ojala les siva
primero empiesa con hamer on como dice abajo en la 6ta cuerda y sigues
tocando en F#M
varias veces sigue el ritmo y cuando tocas en Dterminas con un pull off
en la primer cuerda del segundo traste al 0 ..

intro

Intro
         los acordes pss le sacas el ritmo esta facil
pero se tocan varias veces
e|-------2--2--0-3-2p0---------------------------------||
B|-------2--3--2-3-------------------------------------||
G|-------2--4--2-3------------------------------------.||
D|-------4--4--2-0------------------------------------.||
A|-------4--4--0-0-------------------------------------||varias veces
E|---0h2-2--2--0---------------------------------------||

a|--------------------------------------------------------|
b|-----2--2--2----3----3-----3-----2---2--2-----3---3---3-|
G|---2--2--2----4----4----4------2--2---2-----4--4---4----|
D|--4-4--4--4--4-4----4----4----2-2--2---2---4-4--4---4---|vrias veces
A|--------------------------------------------------------|
E|--------------------------------------------------------|
verso:
F#m                    B 
Vuelvo al tiempo a aquel momento

                      A
en que mi mundo se paraba, entre tus labios.

F#m          Bm                     A
Solo para revivir y derretirme una vez mas,

        D
mirando tus ojos negros.


F#m               Bm                     A
Tengo ganas de ser aire y me respires para siempre,

D                            D
pues no tengo nada que perder.

coro:
D                     F#m
Todo el tiempo estoy pensando en ti,

          A                     Bm
en el brillo del sol, en un rincon del cielo,

 D                        F#m
y todo el tiempo estoy pensando en ti,

      A                 Bm                     Bm
en el eco del mar, que retumba en tus ojos de miel.

a|--------------------------------------------------------|
b|-----2--2--2----3----3-----3-----2---2--2-----3---3---3-|
G|---2--2--2----4----4----4------2--2---2-----4--4---4----|
D|--4-4--4--4--4-4----4----4----2-2--2---2---4-4--4---4---|vrias veces
A|--------------------------------------------------------|
E|--------------------------------------------------------|

e|-------2--2--0-3-2p0---------------------------------||
B|-------2--3--2-3-------------------------------------||
G|-------2--4--2-3------------------------------------.||
D|-------4--4--2-0------------------------------------.||
A|-------4--4--0-0-------------------------------------||varias veces
E|---2h0-2--2--0---------------------------------------||

ya se sabran el segundo verso los mismo acordes que el primero y
el coro igual el arpegeo final es igual que el del intro :)

alguna duda alan13er@

            
            
Suggest correction
Creating personal tab
Creating personal tab
You can edit any tab online and save it as your Personal.

You can edit, replace or remove any tab part or add personal notes – all changes will be seen only by you.

Personal tabs can be accessed anytime from any device, even offline.
Learn more »
Give kudos to tab author, rate the tab!
1 2 3 4 5
comments
print report bad tab
guest
Wanna post a correction for this tab? Suggest correction