Oops, an error
Loading. Please wait.

Amigo En El Baño tab

51 views 3 this week
no commentswrite comment
1 2 3 4 5
3 more votes to show rating
add to favorites
×
Save as Personal and add changes to this tab that will be seen only by you. Learn more ›
×
You can save this tab as Personal to edit and correct it or add notes. All changes will be seen only by you. Learn more »
launch autoscroll
font size
0
reset
how to read this tab
guitar tuner
edit
Autoscroll
slow
fast
+/-
esc
set tempo
stop
SOLO:

    G                C             Am              D

e|-----------------------------------------------------10----------|
B|--10s12-----------------1-------1v---3s5--------55-6-----4s5-2v--|
G|-------12-12----------0---0-3s5----------5-5v--------------------|
D|-------------10-12r----------------------------------------------|
A|-----------------------------------------------------------------|
E|-----------------------------------------------------------------|

    Em               A             D              C
e|-----------------------------------------14--------12------------|
B|--10s12--------12-13-15------------------------------------------|
G|-------12-12v-----------14-12-14v---12-14-----14-12--------------|
D|-----------------------------------------------------------------|
A|-----------------------------------------------------------------|
E|-----------------------------------------------------------------|

          D

e|-------10--------------------------------------------------------|
B|-----------------------------------------------------------------|
G|--12-10-----10s12------------------------------------------------|
D|-----------------12----------------------------------------------|
A|-----------------------------------------------------------------|
E|-----------------------------------------------------------------|


Luego de que viene el coro al final hace esto:


e|----------|
B|----------|
G|--2s4--0--|
D|----------|


Bueno amigos esta es mi primera tab espero que les guste y aprovecho
para dedicarsela a mi primate carlos que esta de cumple, gozenla
amigos y alguna cosa este es
mi correo: eresvergara@
Suggest correction
Creating personal tab
Creating personal tab
You can edit any tab online and save it as your Personal.

You can edit, replace or remove any tab part or add personal notes – all changes will be seen only by you.

Personal tabs can be accessed anytime from any device, even offline.
Learn more »
Give kudos to tab author, rate the tab!
1 2 3 4 5
comments
print report bad tab
guest
Wanna post a correction for this tab? Suggest correction