Oops, an error
Loading. Please wait.

Más Allá De Las Estrellas tab

by Kenosis
46 views 1 this week
no commentswrite comment
1 2 3 4 5
3 more votes to show rating
add to favorites
×
Save as Personal and add changes to this tab that will be seen only by you. Learn more ›
×
You can save this tab as Personal to edit and correct it or add notes. All changes will be seen only by you. Learn more »
launch autoscroll
font size
0
reset
how to read this tab
guitar tuner
edit
Autoscroll
slow
fast
+/-
esc
set tempo
stop
INTRO: mismos acordes del coro

SI vas A tocar LA version Original Tocas
El "RIFF 1 (X2)"
Ahora si vas a tocar la version de Mariachi
tocas los 3 RIFF una sola Vez

e|--------------------------------|
B|---------------9---10-9---------|
G|-9-9-9-8--8-11----------11-9----| RIFF 1
D|--------------------------------|
A|--------------------------------|
E|--------------------------------|

e|-12--------12-14-12-------------|
B|----12--12----------14-12-14----|
G|--------------------------------| RIFF 2
D|--------------------------------|
A|--------------------------------|
E|--------------------------------|

e|--------------------------------|
B|-14-12----12--------12-14-14-12-|
G|-------14----13--13-------------| RIFF 3
D|--------------------------------|
A|--------------------------------|
E|--------------------------------|

:::::::::::::ESTROFA:::::::::::::::

   E                A
Y como parar de alabarte Señor
     E                    B
Con todo lo que haces por mí
   E                A
Dejaste tu trono viniste hasta aquí
E         B      E
A tus hijos redimir

::::::::::::PRE-CORO:::::::::::::::

        E  A                   E      A
Y cada día  haces grandes maravillas
 E                    B
Sanas heridas sin medidas
                C#m
Salvas almas abatidas
                  A
Con tu sangre redimida

        E     A
Y nos gozamos
                 E     A
Hoy tu nombre exaltamos
E                    B                      C#m
al que vive al que reina se la gloria y la honra
                        A
Por los siglos de los siglos


:::::::::::::::CORO:::::::::::::::::

E       B           C#m    A
Más allá  de las estrellas
        E     B             C#m   A
Ángeles danzan en una gran fiesta
E       B           C#m    A
Más allá de las estrellas
         E    B             C#m   A
Ángeles cantan  en una gran fiesta

Estrofa
Pre-coro
Coro

:::::::::::::::SOLO::::::::::::::::::

para el solo haces lo mismo que en la intro
tu decides si la original o la de mariachi

::::NOTA::::
bien puede una guitarra hacer el "RIFF 1 (X2)"
mientras que la otra Hace EL RIFF 2 y RIFF3


               O.V.I.C.E
    "I.D.E.A" Iglesia Dios Es Amor
   La Fria Edo. Tachira - VENEZUELA

            
            
Suggest correction
Creating personal tab
Creating personal tab
You can edit any tab online and save it as your Personal.

You can edit, replace or remove any tab part or add personal notes – all changes will be seen only by you.

Personal tabs can be accessed anytime from any device, even offline.
Learn more »
Give kudos to tab author, rate the tab!
1 2 3 4 5
comments
print report bad tab
guest
Wanna post a correction for this tab? Suggest correction