Oops, an error
Loading. Please wait.

Me Enamoré tab

25 views 1 this week
no commentswrite comment
1 2 3 4 5
3 more votes to show rating
add to favorites
×
Save as Personal and add changes to this tab that will be seen only by you. Learn more ›
×
You can save this tab as Personal to edit and correct it or add notes. All changes will be seen only by you. Learn more »
launch autoscroll
font size
0
reset
how to read this tab
guitar tuner
edit
Autoscroll
slow
fast
+/-
esc
set tempo
stop
Q tranza banda, aki les mando la version original d sta
rola, el tono es "d" y no "a" como la otra, ad+ el otro
intro la neta no es mal plan pero no sta bien, por eso
la mando bien x q la raza m la pide, c la kieor dedicar
a "TAHIMY KARINA"  "tu le diste sentido a mi vida"

y dice asi

D-----------------------------------------------------
G--------------------------------------------12-------
B-10-----------------12--------12-12-12-12-10--12-----
e---12-12-12-12-10-10--15-14-12------------------15-14

D-----------------------------------------------------
G-----------------------------------------------------
B---12-12---------------------------------------------
e-12-----15-14-12-9-10-10/12-14-----------------------

Yo pensaba que el amor se había olvidado de mi y ahora vez
me enamoré otra vez

D-----------------------------------------------------
G--------------------------------------------12-------
B-10-----------------12--------12-12-12-12-10--12-----
e---12-12-12-12-10-10--15-14-12------------------15-14

G-----------------------------------------------------
B---12-12---------------------------------------------
e-12-----15-14-12-9-10-10/12-10-----------------------


         D
Yo que tenía el corazón herido
         Em/Em7
yo que creí que todo había perdido
           G           A           D
ahora me siento tan distinto aquí contigo   RIFF


       D
Yo que juré jamás enamorarme
          Em/Em7
que nadie más podría lastimarme
           G          A             Bm
hoy te doy todo por dentro, por tus besos,RIFF
      F#m            G
tus caricias, por tu forma de mirarme
      Em         A
me atrapaste de verdad

 D
Me enamoré otra vez
 Em/Em7
como jamás pensé
   G             A            D
tu con tu risa borraste mis heridas

    D
Me enamoré otra vez
Em/Em7
y que más puedo hacer
G         A             D
tu le diste sentido a mi vida

D-----------------------------------------------------
G-----------------------------------------------------
B-15-----------15---------------15--------------------
e---12-15-14-12--12-15-14-12-12-----------------------


       D
Contigo se me pierden los minutos
        Em/Em7
y se me forma en la garganta un nudo
     G           A             D
me siento como fuera de este mundo RIFF
        D
Y me robaste el alma con un beso
       Em/Em7
y te metiste en medio de mis sueños
          G              A              Bm
y me enseñaste a hacer canciones con tus besos
      F#m                G
tus caricias, por que tu solo has podido
      Em         A
terminar mi soledad

 D
Me enamoré otra vez
 Em/Em7
como jamás pensé
   G             A            D
tu con tu risa borraste mis heridas


    D
Me enamoré otra vez
Em/Em7
y que más puedo hacer
G         A             D
tu le diste sentido a mi vida


             Bm
y te metiste en medio de mis sueños
        F#m           G        Em
por tu forma de mirarme me atrapaste
     A
de verdad

coro   x dos


RIFF:

G-----------------------------------------------------
B-15-----------15-------------------------------------
e---12-15-14-12--12-15-14-12-12-14--------------------

            
            
Suggest correction
Creating personal tab
Creating personal tab
You can edit any tab online and save it as your Personal.

You can edit, replace or remove any tab part or add personal notes – all changes will be seen only by you.

Personal tabs can be accessed anytime from any device, even offline.
Learn more »
Give kudos to tab author, rate the tab!
1 2 3 4 5
comments
print report bad tab
guest
Wanna post a correction for this tab? Suggest correction