Oops, an error
Loading. Please wait.

Un Poco De Amor Francés tab

version 2
version 2

Whole song

127 views 1 this week
no commentswrite comment
1 2 3 4 5
2 more votes to show rating
add to favorites
×
Save as Personal and add changes to this tab that will be seen only by you. Learn more ›
×
You can save this tab as Personal to edit and correct it or add notes. All changes will be seen only by you. Learn more »
launch autoscroll
font size
0
reset
how to read this tab
guitar tuner
edit
Autoscroll
slow
fast
+/-
esc
set tempo
stop
Punteo inicial

E|----------------------------------------------------------|
B|-13-13-13-13-13--10---------------------------------------|
G|---------------------12--9-10-9-10-9----------------------|
D|----------------------------------------------------------|
A|----------------------------------------------------------|
E|----------------------------------------------------------|

E|------------------------------------------------------------|
B|-10-10-10-10-10-------10-10-10-10-10------------------------|
G|----------------9--------------------9--10-12--10--12-14-16-|
D|------------------10----------------------------------------|
A|------------------------------------------------------------|
E|------------------------------------------------------------|


C5
Una tipa rapaz
Am5
Como te gusta a vos
Dm5               G5
Es tipa vino a consolarte
C5
Un poco de amor francés
    Am5
No muerde su lengua, no
    Dm5                        G5
No es sincera, pero te gusta oírla
C5
Es una linda ración
      Am5
Con un defecto (con uno o dos)
REm5                               G5
Y es un cóctel que no se mezcla solo.

 Am
Quiere, si quiere más
Ya no la engatusas
F                   G5
Es una copa de lo mejor
             C5
Cuando se ríe.

Solo de guitarra

E|--------------------------------------------------|
B|------------------------------------------5-------|
G|-----5-7(9)-5---5-7(9)-----5-7(9)7(9)7-5-4--------|
D|-5-7----------7--------5-7------------------------|
A|--------------------------------------------------|
E|--------------------------------------------------|


E|------------------------------------------------------------------|
B|----15--17-17-17--17-15----15-13----13-------13----15(17)15(17)---|
G|-16---------------------14-------14----12-14----14----------------|
D|------------------------------------------------------------------|
A|------------------------------------------------------------------|
E|------------------------------------------------------------------|


E|-----------------------------------------------------|
B|-15-13-15--13-12-------------------------------------|
G|------------------14-12---14(16)12-14-14-------------|
D|-----------------------14----------------------------|
A|-----------------------------------------------------|
E|-----------------------------------------------------|


C5
El lujo es vulgaridad
Am5
Dijo y me conquisto
Dm5                           G5
De esa miel no comen las hormigas
Suggest correction
Creating personal tab
Creating personal tab
You can edit any tab online and save it as your Personal.

You can edit, replace or remove any tab part or add personal notes – all changes will be seen only by you.

Personal tabs can be accessed anytime from any device, even offline.
Learn more »
Give kudos to tab author, rate the tab!
1 2 3 4 5
comments
print report bad tab
guest
Wanna post a correction for this tab? Suggest correction