Oops, an error
Loading. Please wait.

El Aventurero bass

167 views 3 this week
no commentswrite comment
1 2 3 4 5
3 more votes to show rating
add to favorites
×
Save as Personal and add changes to this tab that will be seen only by you. Learn more ›
×
You can save this tab as Personal to edit and correct it or add notes. All changes will be seen only by you. Learn more »
launch autoscroll
font size
0
reset
guitar tuner
edit
Autoscroll
slow
fast
+/-
esc
set tempo
stop
Se toca con un bajo de 6 cuerdas y la afinacion es como de una guitarra
 (guitarron) (E A D G B E) 
Empezemos!!!

  Q=120
 4/4
  Gtr I
  W          S S E S S E S S E S S E   S S E S S E S S S S S S S S
|----------|-------------------------|-----------------------------|
|----------|-------------------------|-----------------------------|
|----------|-------------------------|-----------------------------|
|----------|-------------------------|-----------------0-----------|
|----------|-1-----------1-----------|-1-----------1-------3---1---|
|----------|-------1-----------1-----|-------1---------------------|


  S S S S S S S S S S E S S E   S S E S S E S S E S S E
|-------------0---------------|--------------------------|
|-----------------------------|--------------------------|
|-----------------------------|--------------------------|
|-----------------------------|--------------------------|
|-0---------------1-----------|-1-----------1------------|
|-----3---1-------------1-----|-------1-----------1------|


  S S E S S E S S E S S E   S S E S S E S S S S S S S S
|-------------------------|-------0----------------------|
|-------------------------|------------------------------|
|-------------------------|------------------------------|
|-------------------------|------------------------------|
|-1-----------1-----------|---------------------0---1----|
|-------1-----------1-----|-1-----------1---3------------|


  S S S S S S S S S S E S S E   S S E S S E S S E S S E
|-----------------------0-----|-------0-----------0------|
|-----------------------------|--------------------------|
|-----------------------------|--------------------------|
|-----------------------------|--------------------------|
|-3---1---0-------------------|--------------------------|
|-------------3---1-----------|-1-----------1------------|


  S S E S S E S S E S S E   S S S S S S S S S S E S S S S
|-------0-----------0-----|-------------------------------|
|-------------------------|-------------------------------|
|-------------------------|-------------------------------|
|-------------------------|-------------------------------|
|-------------------------|---------0---1---3-----1---0---|
|-1-----------1-----------|-1---3-------------------------|


  S S E S S E S S E S S E   S S E S S S S S S E S S E
|-------0-----------0-----|---------------------------|
|-------------------------|---------------------------|
|-------------------------|---------------------------|
|-------------------------|---------------------------|
|-------------------------|-----------0---1-----------|
|-1-----------1-----------|-1-----3-------------1-----|


  S S S S S S S S S S S S S S S S   S S E S S E S S E S S E
|-----------------------------0---|-------------------------|
|---------------------------------|-------------------------|
|---------------------------------|-------------------------|
|-----0---------------------------|-------------------------|
|-1-------3---1---0---------------|-1-----------1-----------|
|---------------------3---1-------|-------1-----------1-----|


  S S E S S E S S E S S E   S S E S S E S S S S S S S S
|-------------------------|------------------------------|
|-------------------------|------------------------------|
|-------------------------|------------------------------|
|-------------------------|-----------------0------------|
|-1-----------1-----------|-1-----------1-------3---1----|
|-------1-----------1-----|-------1----------------------|


  S S S S S S S S S S E S S E   S S E S S E S S E S S E
|-------------0---------------|--------------------------|
|-----------------------------|--------------------------|
|-----------------------------|--------------------------|
|-----------------------------|--------------------------|
|-0---------------1-----------|-1-----------1------------|
|-----3---1-------------1-----|-------1-----------1------|


  S S E S S E S S E S S E   S S E S S E S S S S S S S S
|-------------------------|-------0----------------------|
|-------------------------|------------------------------|
|-------------------------|------------------------------|
|-------------------------|------------------------------|
|-1-----------1-----------|---------------------0---1----|
|-------1-----------1-----|-1-----------1---3------------|


  S S S S S S S S S S E S S E   S S E S S E S S E S S E
|-----------------------0-----|-------0-----------0------|
|-----------------------------|--------------------------|
|-----------------------------|--------------------------|
|-----------------------------|--------------------------|
|-3---1---0-------------------|--------------------------|
|-------------3---1-----------|-1-----------1------------|


  S S E S S E S S E S S E   S S S S S S S S S S E S S S S
|-------0-----------0-----|-------------------------------|
|-------------------------|-------------------------------|
|-------------------------|-------------------------------|
|-------------------------|-------------------------------|
|-------------------------|---------0---1---3-----1---0---|
|-1-----------1-----------|-1---3-------------------------|


  S S E S S E S S E S S E   S S E S S E S S E S S E   S S E S S E S S E S S E
|-------0-----------0-----|-------0-----------0-----|-------0-----------0------|
|-------------------------|-------------------------|--------------------------|
|-------------------------|-------------------------|--------------------------|
|-------------------------|-------------------------|--------------------------|
|-------------------------|-------------------------|--------------------------|
|-1-----------1-----------|-1-----------1-----------|-1-----------1------------|


  S S S S S S S S S S S S S S S S   S S E S S E S S E S S E
|-----------------------------0---|-------------------------|
|---------------------------------|-------------------------|
|---------------------------------|-------------------------|
|-----0---------------------------|-------------------------|
|-1-------3---1---0---------------|-1-----------1-----------|
|---------------------3---1-------|-------1-----------1-----|


  S S E S S E S S E S S E   S S E S S E S S E S S E
|-------------------------|-------------------------|
|-------------------------|-------------------------|
|-------------------------|-------------------------|
|-------------------------|-------------------------|
|-1-----------1-----------|-1-----------1-----------|
|-------1-----------1-----|-------1-----------1-----|


  S S E S S E S S S S S S S S   S S S S S S S S S S E S S E
|-----------------------------|-------------0---------------|
|-----------------------------|-----------------------------|
|-----------------------------|-----------------------------|
|-----------------0-----------|-----------------------------|
|-1-----------1-------3---1---|-0---------------1-----------|
|-------1---------------------|-----3---1-------------1-----|


  S S E S S E S S E S S E   S S E S S E S S E S S E
|-------------------------|-------------------------|
|-------------------------|-------------------------|
|-------------------------|-------------------------|
|-------------------------|-------------------------|
|-1-----------1-----------|-1-----------1-----------|
|-------1-----------1-----|-------1-----------1-----|


  S S E S S E S S S S S S S S   S S S S S S S S S S E S S E
|-------0---------------------|-----------------------0-----|
|-----------------------------|-----------------------------|
|-----------------------------|-----------------------------|
|-----------------------------|-----------------------------|
|---------------------0---1---|-3---1---0-------------------|
|-1-----------1---3-----------|-------------3---1-----------|


  S S E S S E S S E S S E   S S E S S E S S E S S E
|-------0-----------0-----|-------0-----------0-----|
|-------------------------|-------------------------|
|-------------------------|-------------------------|
|-------------------------|-------------------------|
|-------------------------|-------------------------|
|-1-----------1-----------|-1-----------1-----------|


  S S S S S S S S S S E S S S S   S S E S S E S S E S S E
|-------------------------------|-------0-----------0-----|
|-------------------------------|-------------------------|
|-------------------------------|-------------------------|
|-------------------------------|-------------------------|
|---------0---1---3-----1---0---|-------------------------|
|-1---3-------------------------|-1-----------1-----------|


  S S E S S E S S E S S E   S S E S S E S S E S S E
|-------0-----------0-----|-------0-----------0-----|
|-------------------------|-------------------------|
|-------------------------|-------------------------|
|-------------------------|-------------------------|
|-------------------------|-------------------------|
|-1-----------1-----------|-1-----------1-----------|


  S S S S S S S S S S S S S S S S   S S E S S E S S E S S E
|-----------------------------0---|-------------------------|
|---------------------------------|-------------------------|
|---------------------------------|-------------------------|
|-----0---------------------------|-------------------------|
|-1-------3---1---0---------------|-1-----------1-----------|
|---------------------3---1-------|-------1-----------1-----|


  S S E S S E S S E S S E   E E E E E E E E
|-------------------------|-0-------0-------|
|-------------------------|-----------------|
|-------------------------|-----------------|
|-------------------------|-----------------|
|-1-----------1-----------|-----1-------1---|
|-------1-----------1-----|-----------------|


  E E E E E E E E   E E E E E E E E
|-0-------0-------|-0-------0-------|
|-----------------|-----------------|
|-----------------|-----------------|
|-----------------|-----------------|
|-----1-------1---|-----1-------1---|
|-----------------|-----------------|


  E E E E E E E E   E E E E E E E E   E E E E E E E E   E E E E E E E E
|-0-------0-------|-0---------------|-----------------|-----------------|
|-----------------|-----------------|-----------------|-----------------|
|-----------------|-----------------|-----------------|-----------------|
|-----------------|-----------------|-----------------|-----------------|
|-----1-------1---|-----1-------3---|-1-------1-------|-1-------1-------|
|-----------------|---------1-------|-----1-------1---|-----1-------1---|


  E E E E E E E E   E E E E E E E E   E E E E E E E E   E E E E E E E E
|-----------------|-----------------|-----------------|-----------------|
|-----------------|-----------------|-----------------|-----------------|
|-----------------|-----------------|-----------------|-----------------|
|-----------------|-----------------|-----------------|-----------------|
|-1-------1---0---|-1-------1---0---|-----3-------3---|-----3-------3---|
|-----1---------3-|-----1---------3-|-1-------1-------|-1-------1-------|


  E E E E E E E E   E E E E E E E E   E E E E E E E E   E E E E E E E E
|-----------------|-----------------|-----------------|-----------------|
|-----------------|-----------------|-----------------|-----------------|
|-----------------|-----------------|-----------------|-----------------|
|-----------------|-----------------|-----------------|-----------------|
|-----3-------3---|-------0-1-------|-1-------1-------|-1-------1-------|
|-1-------1-------|-1---3-------1---|-----1-------1---|-----1-------1---|


  S S E S S E S S E S S E   S S E S S E S S S S S S S S
|-------------------------|------------------------------|
|-------------------------|------------------------------|
|-------------------------|------------------------------|
|-------------------------|-----------------0------------|
|-1-----------1-----------|-1-----------1-------3---1----|
|-------1-----------1-----|-------1----------------------|


  S S S S S S S S S S E S S E   S S E S S E S S E S S E
|-------------0---------------|--------------------------|
|-----------------------------|--------------------------|
|-----------------------------|--------------------------|
|-----------------------------|--------------------------|
|-0---------------1-----------|-1-----------1------------|
|-----3---1-------------1-----|-------1-----------1------|


  S S E S S E S S E S S E   S S E S S E S S S S S S S S
|-------------------------|-------0----------------------|
|-------------------------|------------------------------|
|-------------------------|------------------------------|
|-------------------------|------------------------------|
|-1-----------1-----------|---------------------0---1----|
|-------1-----------1-----|-1-----------1---3------------|


  S S S S S S S S S S E S S E   S S E S S E S S E S S E
|-----------------------0-----|-------0-----------0------|
|-----------------------------|--------------------------|
|-----------------------------|--------------------------|
|-----------------------------|--------------------------|
|-3---1---0-------------------|--------------------------|
|-------------3---1-----------|-1-----------1------------|


  S S E S S E S S E S S E   S S S S S S S S S S E S S S S
|-------0-----------0-----|-------------------------------|
|-------------------------|-------------------------------|
|-------------------------|-------------------------------|
|-------------------------|-------------------------------|
|-------------------------|---------0---1---3-----1---0---|
|-1-----------1-----------|-1---3-------------------------|


  S S E S S E S S E S S E   S S E S S S S S S E S S E
|-------0-----------0-----|---------------------------|
|-------------------------|---------------------------|
|-------------------------|---------------------------|
|-------------------------|---------------------------|
|-------------------------|-----------0---1-----------|
|-1-----------1-----------|-1-----3-------------1-----|


  S S S S S S S S S S S S S S S S   S S E S S E S S E S S E
|-----------------------------0---|-------------------------|
|---------------------------------|-------------------------|
|---------------------------------|-------------------------|
|-----0---------------------------|-------------------------|
|-1-------3---1---0---------------|-1-----------1-----------|
|---------------------3---1-------|-------1-----------1-----|


  S S E S S E S S E S S E   S S E S S E S S S S S S S S
|-------------------------|------------------------------|
|-------------------------|------------------------------|
|-------------------------|------------------------------|
|-------------------------|-----------------0------------|
|-1-----------1-----------|-1-----------1-------3---1----|
|-------1-----------1-----|-------1----------------------|


  S S S S S S S S S S E S S E   S S E S S E S S E S S E
|-------------0---------------|--------------------------|
|-----------------------------|--------------------------|
|-----------------------------|--------------------------|
|-----------------------------|--------------------------|
|-0---------------1-----------|-1-----------1------------|
|-----3---1-------------1-----|-------1-----------1------|


  S S E S S E S S E S S E   S S E S S E S S S S S S S S
|-------------------------|-------0----------------------|
|-------------------------|------------------------------|
|-------------------------|------------------------------|
|-------------------------|------------------------------|
|-1-----------1-----------|---------------------0---1----|
|-------1-----------1-----|-1-----------1---3------------|


  S S S S S S S S S S E S S E   S S E S S E S S E S S E
|-----------------------0-----|-------0-----------0------|
|-----------------------------|--------------------------|
|-----------------------------|--------------------------|
|-----------------------------|--------------------------|
|-3---1---0-------------------|--------------------------|
|-------------3---1-----------|-1-----------1------------|


  S S E S S E S S E S S E   S S S S S S S S S S E S S S S
|-------0-----------0-----|-------------------------------|
|-------------------------|-------------------------------|
|-------------------------|-------------------------------|
|-------------------------|-------------------------------|
|-------------------------|---------0---1---3-----1---0---|
|-1-----------1-----------|-1---3-------------------------|


  S S E S S E S S E S S E   S S E S S E S S E S S E   S S E S S E S S E S S E
|-------0-----------0-----|-------0-----------0-----|-------0-----------0------|
|-------------------------|-------------------------|--------------------------|
|-------------------------|-------------------------|--------------------------|
|-------------------------|-------------------------|--------------------------|
|-------------------------|-------------------------|--------------------------|
|-1-----------1-----------|-1-----------1-----------|-1-----------1------------|


  S S S S S S S S S S S S S S S S   S S E S S E S S E S S E
|-----------------------------0---|-------------------------|
|---------------------------------|-------------------------|
|---------------------------------|-------------------------|
|-----0---------------------------|-------------------------|
|-1-------3---1---0---------------|-1-----------1-----------|
|---------------------3---1-------|-------1-----------1-----|


  S S E S S E S S E S S E   E E E E E E E E
|-------------------------|-0-------0-------|
|-------------------------|-----------------|
|-------------------------|-----------------|
|-------------------------|-----------------|
|-1-----------1-----------|-----1-------1---|
|-------1-----------1-----|-----------------|


  E E E E E E E E   E E E E E E E E
|-0-------0-------|-0-------0-------|
|-----------------|-----------------|
|-----------------|-----------------|
|-----------------|-----------------|
|-----1-------1---|-----1-------1---|
|-----------------|-----------------|


  E E E E E E E E   E E E E E E E E   E E E E E E E E   E E E E E E E E
|-0-------0-------|-0---------------|-----------------|-----------------|
|-----------------|-----------------|-----------------|-----------------|
|-----------------|-----------------|-----------------|-----------------|
|-----------------|-----------------|-----------------|-----------------|
|-----1-------1---|-----1-------3---|-1-------1-------|-1-------1-------|
|-----------------|---------1-------|-----1-------1---|-----1-------1---|


  E E E E E E E E   E E E E E E E E   E E E E E E E E   E E E E E E E E
|-----------------|-----------------|-----------------|-----------------|
|-----------------|-----------------|-----------------|-----------------|
|-----------------|-----------------|-----------------|-----------------|
|-----------------|-----------------|-----------------|-----------------|
|-1-------1---0---|-1-------1---0---|-----3-------3---|-----3-------3---|
|-----1---------3-|-----1---------3-|-1-------1-------|-1-------1-------|


  E E E E E E E E   E E E E E S S S S S S   S S S S S S S S S S E E E
|-----------------|-----------------------|----------------------------|
|-----------------|-----------------------|----------------------------|
|-----------------|-----------------------|----------------------------|
|-----------------|-----------------------|----------------------------|
|-----3-------3---|-------0-1-------------|----------------------------|
|-1-------1-------|-1---3-----1---0---1---|-2---3---4---5---6-----1----|


  s S E Q  H
|---------------*|
|---------------*|
|---------------*|
|---------------*|
|-1-------------*|
|---------------*|

FIN!!!
- BUENO AQUI ABAJO ESTA EL SIGNIFICADO DE LAS LETRAS Y LOS SIGNOS...
- ESPERO QUE LES HAYA AGRADADO Y SOBRETODO QUE LE HAYAN ENTENDIDO...
- POR SI ALGUNA RAZON NO LE ENTIENDEN PUES HECHENME UN MAIL A: sNaKePiTs@
- SI QUIEREN ALGUNA PETICION PUES TAMBIEN HECHENME UN MAIL...
- ESTA CANCION Y OTRAS LAS TENGO EN ARCHIVOS POWERTAB, POR SI ALGUIEN LA QUIERE...
  PUES HECHENME UN MAIL PIDIENDOLAS...
- LOS VERE EN LA PROXIMA CANCION!!!...


NOTA!!!: PUEDEN UTILIZAR ESTA TAB PARA PUBLICARLA DONDE USTEDES
QUIERAN, PERO POR FAVOR LES RUEGO QUE ME DEN LOS CREDITOS COMO
TRANSCRIPTOR DE LA MISMA...GRACIAS!!!

NESTOR SADAO ARECHIGA CERVANTES (sNaKePiTs@


LEYENDA DE LAS NOTAS:

W = (REDONDA)     NOTA COMPLETA
H = (BLANCA)      MEDIA NOTA
Q = (NEGRA)       CUARTO DE NOTA
E = (CORCHEA)     OCTAVO DE NOTA
S = (SEMICORCHEA) DIECISEISAVA DE NOTA
T = (FUSA)        TREINTAIDOSAVA DE NOTA
X = (SEMIFUSA)    SESENTAICUATROAVA DE NOTA

a  =  ACCIACCATURA
+  =  LIGADURA
.  =  AUMENTA LA DURACION DE LA NOTA
.. =  AUMENTA LA DOBLE DE LA DURACION DE LA NOTA


LEYENDA DEL 'PENTAGRAMA'
 |  - COMPAS
||  - DOBLE COMPAS
||o - ES DONDE VA A COMENZAR CUANDO ALGO SE VA A REPETIR
o|| - ES DONDE VA A TERMINAR CUANDO ALGO SE VA A REPETIR
*|  - FIN DE LA CANCION
 :  - COMPAS LIBRE
 $  - SEGNO (AL VER ESTE SIGNO, TENEMOS QUE RETROCEDER HASTA VER EL SIGNO ANTERIOR $...)
 &  - CODA (SIGNIFICA QUE DEBES PASAR LA SIGUIENTE SIGNO &)

            
            
Suggest correction
Creating personal tab
Creating personal tab
You can edit any tab online and save it as your Personal.

You can edit, replace or remove any tab part or add personal notes – all changes will be seen only by you.

Personal tabs can be accessed anytime from any device, even offline.
Learn more »
Give kudos to tab author, rate the tab!
1 2 3 4 5
comments
print report bad tab
guest
Wanna post a correction for this tab? Suggest correction