Oops, an error
Loading. Please wait.

Si Tú Supieras tab

14 views 1 this week
no commentswrite comment
1 2 3 4 5
3 more votes to show rating
add to favorites
×
Save as Personal and add changes to this tab that will be seen only by you. Learn more ›
×
You can save this tab as Personal to edit and correct it or add notes. All changes will be seen only by you. Learn more »
launch autoscroll
font size
0
reset
how to read this tab
guitar tuner
edit
Autoscroll
slow
fast
+/-
esc
set tempo
stop
Clave:  SOL Mayor


----------------------------------------------e
----------------------------------------------a
----------------------------------------------d
----------------------------------------------g
--12-10--8-------7--8------7--8----12---------b
--10--8--7-------5--7------5--7----10---------e


----------------------------------------------e
----------------------------------------------a
----------------------------------------------d
----------------------------------------------g
-10--8--7-----6--7-----6--7---10---8--7--8----b
-8---7--5-----4--5-----4--5---8----7--5--7----e


----------------------------------------------e
----------------------------------------------a
----------------------------------------------d
----------------------------------------------g
-7--8--10--12---------------------------------b
-5--7--8---10---------------------------------e

----------------------------------------------e
----------------------------------------------a
----------------------------------------------d
----------------------------------------------g
--12-10--8-------7--8------7--8----12---------b
--10--8--7-------5--7------5--7----10---------e


----------------------------------------------e
----------------------------------------------a
----------------------------------------------d
----------------------------------------------g
-10--8--7-----6--7-----6--7---10---8--7--8----b
-8---7--5-----4--5-----4--5---8----7--5--7----e


----------------------------------------------e
----------------------------------------------a
----------------------------------------------d
-7-----------6----4---------------------------g
----------------------------------------------b
----7----6--------3---------------------------e


         G              D7             G
Si tu supieras cuantas lunas te he llorado
                        Bm          D7
y que el recuerdo te recuerda sin querer

si tu supieras que no encuentro en este mundo
                                 G
algun lugar donde poder huir de ti


Si tu supieras que estoy siempre en la nada
haciendo suenos donde vuelves junto a mi
si tu supieras que he buscado tu sonrisa
pero estoy preso dentro de otra realidad

G7
         C
Si tu supieras que tu amor esta en mi sangre
                                G
y que el orgullo es un juego de perder
                        Bm          D7
si tu supieras que la puerta esta abierta
                                 G
tal vez volvieras a quererme otra vez


Si tu supieras cuantas lunas te he llorado
y que no puedo arrancarte de mi ser
si tu supieras que tu alma esta en mi alma
y que estoy ciego dentro de la claridad


Si tu supieras que tu amor esta en mi sangre
y que el orgullo es un juego de perder
si tu supieras que la puerta esta abierta
tal vez volvieras a quererme otra vez
si tu supieras cuantas lunas te he llorado...

            
            
Suggest correction
Creating personal tab
Creating personal tab
You can edit any tab online and save it as your Personal.

You can edit, replace or remove any tab part or add personal notes – all changes will be seen only by you.

Personal tabs can be accessed anytime from any device, even offline.
Learn more »
Give kudos to tab author, rate the tab!
1 2 3 4 5
comments
print report bad tab
guest
Wanna post a correction for this tab? Suggest correction