Oops, an error
Loading. Please wait.

Yo Nací Para Estar En Un Conjunto tab

by Pereza
31 views 1 this week
no commentswrite comment
1 2 3 4 5
3 more votes to show rating
add to favorites
×
Save as Personal and add changes to this tab that will be seen only by you. Learn more ›
×
You can save this tab as Personal to edit and correct it or add notes. All changes will be seen only by you. Learn more »
launch autoscroll
font size
0
reset
how to read this tab
guitar tuner
edit
Autoscroll
slow
fast
+/-
esc
set tempo
stop
La guitarra rítmica comienza igual que en el estribillo:

Intro : A# - F - C5 - F ( x2)

Punteo :

e||-10--10---------------------10---------------
B||--------13--13-10-13--13-13------------------
G||-------------------------------12b14b12-10---  (x2)
D||---------------------------------------------
A||---------------------------------------------
E||---------------------------------------------
.......
e||-------1-----------------------------------
B||-----1---1---------------------------------
G||-2h3-------2~------------------------------
D||-------------------------------------------
A||-------------------------------------------
E||-------------------------------------------

F                             A#
Días malos viviendo de noche, haciendo rotos y comiendo mal,
Gm                              C
con un sueño por salir a flote, que se ahogaba cada noche en un bar.

F                                A#
Quemando rueda en una furgoneta, quemando ficha pa hacerla volar.
Gm                              C                F
Desde Torín de a playas negras, de la Malasaña a la próxima ya.

A#                     F                    C
De estar sin blanca a sentirte una estrella,de ser un indio a que te
D5                        D#/Eb
corten el gas, de estar colgando la noche entera...

F                                  A#
El primer combo es la primera novia,el primer bolo es como el primer
      Gm                                  C
polvo,a fuego queda marcado en tu memoria,aunque haya sido un

desastre como todos.

F                                A#
El rock&roll no necesita de más, qué tiempos duros pero divertidos
Gm                                      C
y muchas ganas por querer figurar en la lista de los elegidos.

Estribillo

A#        F      C           F
Que yo nací para estar en un conjunto     Punteo

A#       F        C            F
Para sonar mi canción por todo el mundo.   Punteo

Gm                  C                A#            F        C       F
Descuidando novias, clases y curros; planeando el asalto al mundo.


e||-10--10---------------------10---------------10--10--------------
B||--------13--13-10-13--13-13------------------------13-10---------
G||-------------------------------12b14b12-10---------------10/12~--
D||-----------------------------------------------------------------
A||-----------------------------------------------------------------
E||-----------------------------------------------------------------


Verso:

F                                A#
Horas extras por salir del paso, el tiempo pasa y no pasa nada,
Gm                                 C
inconfundible el olor del fracaso, impregnando toda esperanza.

F                                           A#
Y ay que no se entera, se entera demasiado, quien se plantea
                   Gm
de nuevo su futuro,quien se abandona y quien a cabezazos
C
sigue con más fuerza golpeando el mundo.


Estribillo

G#/Ab      Gm            Fm                             C#/Db
Para todas las bandas y picando piedra en la carretera, para todos
Cm                          A#          C
los sueños de gloria abandonados en las cunetas .

F
Para el porreta,el drogata,
                     A#                             Gm
el guitar Hero el bajista que toca porque es amigo y el cantante vibrante
                C
siempre delante y a todos los que se dicen a sí mismos

A#       F       C          F   A# F   C   F
Que yo nací para ser número uno ohoh ohoh ohoh,
A#      F          C           F
para tocar mi canción por todo el mundo.


Estribillo

            
            
Suggest correction
Creating personal tab
Creating personal tab
You can edit any tab online and save it as your Personal.

You can edit, replace or remove any tab part or add personal notes – all changes will be seen only by you.

Personal tabs can be accessed anytime from any device, even offline.
Learn more »
Give kudos to tab author, rate the tab!
1 2 3 4 5
comments
print report bad tab
guest
Wanna post a correction for this tab? Suggest correction