Oops, an error
Loading. Please wait.

Ante Todo tab

version 2
version 2

Whole song

45 views 1 this week
no commentswrite comment
1 2 3 4 5
3 more votes to show rating
add to favorites
×
Save as Personal and add changes to this tab that will be seen only by you. Learn more ›
×
You can save this tab as Personal to edit and correct it or add notes. All changes will be seen only by you. Learn more »
launch autoscroll
font size
0
reset
how to read this tab
guitar tuner
edit
Autoscroll
slow
fast
+/-
esc
set tempo
stop
E|---------------------------------------------------------
A|---------------------------------------------------------
D|-12-12-12---------------------------12-12-12----12~------
G|----------12--------------14-12-14~----------12----------
B|-------------12--12-12-12--------------------------------
E|---------------------------------------------------------
               SOL                RE              DO       

E|---------------------------------------------------------
A|---------------------------------------------------------
D|-12-12-12----12~-12-12-12--------------------------------
G|----------12--------------12-----------------------------
B|-----------------------------12~-12-------------15----15-
E|------------------------------------15-15-15-12----12----
               SOL                    RE                   

E|-------------------------------------------|
A|-------------------------------------------|
D|-------------------------------------------|
G|------------------------------------14-12~-|
B|-12-15-------------15----15---15-12--------|
E|-------15-15-15-12----12-------------------|
      DO                                 SOL

SOL                 RE                DO         SOL
Ante todo, trato de explicarte, lo que quiero de ti.
                         RE        DO            SOL
Ante todo, quiero que tu seas, alguien muy normal.
     RE                 DO                          SOL
Ante todo, quiero que me trates, como yo te trato a ti.
     RE                  DO                      SOL
Ante todo, trato de explicarte, lo que quiero de ti.


RE  MI.m                 SOL
    Sueña hasta que te duermas.
RE  MI.m               SOL
    Duerme y ya no soñaras,
      RE             DO           SOL  
Solo sentiras que tu alma viene y va,
SI.m      RE         DO           SOL
Solo sentirás que tu alma viene y va.


E|---------------------------------------------------------
A|---------------------------------------------------------
D|-12-12-12---------------------------12-12-12----12~------
G|----------12--------------14-12-14~----------12----------
B|-------------12--12-12-12--------------------------------
E|---------------------------------------------------------
               SOL                RE              DO       

E|---------------------------------------------------
A|---------------------------------------------------
D|-14/12~~--12-12-12---------------------------------
G|-------------------12------------------------------
B|----------------------12~-12-------------15----15--
E|-----------------------------15-15-15-12----12-----
      SOL                   RE                   

E|-------------------------------------------|
A|-------------------------------------------|
D|-------------------------------------------|
G|------------------------------------14-12~-|
B|-12-15-------------15----15---15-12--------|
E|-------15-15-15-12----12-------------------|
      DO                                 SOL


SOL                 RE                DO         SOL
Ante todo, trato de explicarte, lo que quiero de ti.
                         RE         DO          SOL
Ante todo, quiero que descubras, lo dulce de la vida.
     RE                  DO                         SOL
Ante todo, quiero que me juzgues, por lo que ves en mi.
     RE                  DO                      SOL
Ante todo, trato de explicarte, lo que quiero de ti.


RE  MI.m                 SOL
    Sueña hasta que te duermas.
RE  MI.m               SOL
    Duerme y ya no soñaras,
      RE             DO           SOL  
Solo sentiras que tu alma viene y va,
SI.m      RE         DO           SOL
Solo sentirás que tu alma viene y va.
        RE          DO          SOL
Viene y va, Viene y va, Viene y va...


***********************************************************
 Esta Canción se la quiero dedicar a la Florbela, Besos
***********************************************************
 Alguna duda enviadme un e-mail: meloo7_guitar@
***********************************************************
 Visitad my Blog,       
***********************************************************

            
            
Suggest correction
Creating personal tab
Creating personal tab
You can edit any tab online and save it as your Personal.

You can edit, replace or remove any tab part or add personal notes – all changes will be seen only by you.

Personal tabs can be accessed anytime from any device, even offline.
Learn more »
Give kudos to tab author, rate the tab!
1 2 3 4 5
comments
print report bad tab
guest
Wanna post a correction for this tab? Suggest correction