Oops, an error
Loading. Please wait.

El Baile Y El Salón tab

version 2
version 2

Whole song

Interactive

116 views 1 this week
no commentswrite comment
1 2 3 4 5
3 more votes to show rating
add to favorites
×
Save as Personal and add changes to this tab that will be seen only by you. Learn more ›
×
You can save this tab as Personal to edit and correct it or add notes. All changes will be seen only by you. Learn more »
launch autoscroll
font size
0
reset
how to read this tab
guitar tuner
edit
Autoscroll
slow
fast
+/-
esc
set tempo
stop
standar:

6=E  3=G
5=A  2=B
4=D  1=E
               intro:4/4

   ARREGLO PIANO
E||--------------------|-------------------||
B||--2--------3--------|--1----------------||
G||--1--------1--------|--1----------------||
D||--2--------0--------|--2----------------||
A||--0-----------------|-------------------||
E||--------------------|-(4)---------------||


guitarra 1
                                  riff 1:
    papa ra pa pa eoo eoo
E||-0--0--0-0-0--2-0-0-0-|-0--0--0-0-0--2-0-0-0-||
B||-2--2--2-2-2--2-2-2-2-|-2--2--2-2-2--2-2-2-2-||
G||-1--1--1-1-1--1-1-1-1-|-1--1--1-1-1--1-1-1-1-||
D||-2--2--2-2-2--2-2-2-2-|-2--2--2-2-2--2-2-2-2-||
A||----------------------|----------------------||
E||----------------------|----------------------||

  papa ra pa pa eoo eoo
|-0--0--0-0-0--2-0-0-0-|-0--0--0-0-0--2-0-0-0-||
|-2--2--2-2-2--2-2-2-2-|-2--2--2-2-2--2-2-2-2-||
|-1--1--1-1-1--1-1-1-1-|-1--1--1-1-1--1-1-1-1-||
|-2--2--2-2-2--2-2-2-2-|-2--2--2-2-2--2-2-2-2-||
|----------------------|----------------------||
|----------------------|----------------------||

   papa ra pa pa eoo eoo
|-2--2--2-2-2--2-2-2-2--|--0--0--0-0-0--0-0-0-0-||
|-3--3--3-3-3--3-3-3-3--|--0--0--0-0-0--0-0-0-0-||
|-4--4--4-4-4--4-4-4-4--|--1--1--1-1-1--1-1-1-1-||
|-4--4--4-4-4--4-4-4-4--|--2--2--2-2-2--2-2-2-2-||
|-2--2--2-2-2--2-2-2-2--|-----------------------||
|-----------------------|-----------------------||

   papa ra pa pa eoo eoo
|-0--0--0-0-0--2-0-0-0-|-0--0--0-0-0--2-0-0-0-||
|-2--2--2-2-2--2-2-2-2-|-2--2--2-2-2--2-2-2-2-||
|-1--1--1-1-1--1-1-1-1-|-1--1--1-1-1--1-1-1-1-||
|-2--2--2-2-2--2-2-2-2-|-2--2--2-2-2--2-2-2-2-||
|----------------------|----------------------||
|----------------------|----------------------||


  (riff 1) verso

    Nos besamos bailando
  en medio del lugar
  La musica ya iba llegando
  al ultimo compas
  Miradas en silencio
  y quien lo iba pensar
  que despues de este primer baile
  me iba a

 G1    enamorar
E||-0--0--0-0-0--2-0-0-0-|-0--0--0-0-0--2-0-0-0-||
B||-2--2--2-2-2--2-2-2-2-|-2--2--2-2-2--2-2-2-2-||
G||-1--1--1-1-1--1-1-1-1-|-1--1--1-1-1--1-1-1-1-||
D||-2--2--2-2-2--2-2-2-2-|-2--2--2-2-2--2-2-2-2-||
A||-0--0--0-0-0--0-0-0-0-|-0--0--0-0-0--0-0-0-0-||
E||-0--0--0-0-0--0-0-0-0-|-0--0--0-0-0--0-0-0-0-||


  CORO:    RIFF 2:

     Yo que era un solitario bailando
E||--5--5----4--4---|--2--2----0--0--0--0-0-0-||
B||--7--7--x-5--5-x-|--3--3----2--2--2--2-2-2-||
G||--6--6--x-4--4-x-|--2--2--x-1--1--1--1-1-1-||
D||--7--7--x-6--6-x-|--4--4--x-2--2--2--2-2-2-||
A||----------4--4-x-|--2--2--x-0--0--0--0-0-0-||
E||-----------------|-------------------------||


     me quede sin hablar
||--5--5----4--4---|--2--2----5--5--5--5-5-5-||
||--7--7--x-5--5-x-|--3--3----5--5--5--5-5-5-||
||--6--6--x-4--4-x-|--2--2--x-6--6--6--6-6-6-||
||--7--7--x-6--6-x-|--4--4--x-7--7--7--7-7-7-||
||----------4--4-x-|--2--2--x-7--7--7--7-7-7-||
||-----------------|-------------------------||


    mienrtas tu me fuiste demostrando
||--5--5----4--4---|--2--2----0--0--0--0-0-0-||
||--7--7--x-5--5-x-|--3--3----2--2--2--2-2-2-||
||--6--6--x-4--4-x-|--2--2--x-1--1--1--1-1-1-||
||--7--7--x-6--6-x-|--4--4--x-2--2--2--2-2-2-||
||----------4--4-x-|--2--2--x-0--0--0--0-0-0-||
||-----------------|-------------------------||


 que el amor es bailaarr
||-----2--2----0--0---||
||-----3--3--x-0--0-x-||
||-----2--2--x-1--1-x-||
||-----0--0--x-2--2-x-||
||-------------2--2-x-||
||--------------------||


  G1   papa ra pa pa eoo eoo
E||-0--0--0-0-0--2-0-0-0-|-0--0--0-0-0--2-0-0-0-||
B||-2--2--2-2-2--2-2-2-2-|-2--2--2-2-2--2-2-2-2-||
G||-1--1--1-1-1--1-1-1-1-|-1--1--1-1-1--1-1-1-1-||
D||-2--2--2-2-2--2-2-2-2-|-2--2--2-2-2--2-2-2-2-||
A||----------------------|----------------------||
E||----------------------|----------------------||
 ||
 ||
 ||G2
E||--9-------------------|----------------------||
B||----------------------|----------------------||
G||--6-------------------|----------------------||
D||----------------------|----------------------||
A||----------------------|----------------------||


   G1  papa ra pa pa eoo eoo
||-0--0--0-0-0--2-0-0-0-|-0--0--0-0-0--2-0-0-0-||
||-2--2--2-2-2--2-2-2-2-|-2--2--2-2-2--2-2-2-2-||
||-1--1--1-1-1--1-1-1-1-|-1--1--1-1-1--1-1-1-1-||
||-2--2--2-2-2--2-2-2-2-|-2--2--2-2-2--2-2-2-2-||
||----------------------|----------------------||
||----------------------|----------------------||
||
||
||  G2
||--(9-----------------|-----------------------||
||--(9-----------------|-----------------------||
||--(9-----------------|-----------------------||
||--(7-----------------|-----------------------||
||---------------------|-----------------------||


   G1  papa ra pa pa eoo eoo
||-2--2--2-2-2--2-2-2-2--|--0--0--0-0-0--0-0-0-0-||
||-3--3--3-3-3--3-3-3-3--|--0--0--0-0-0--0-0-0-0-||
||-4--4--4-4-4--4-4-4-4--|--1--1--1-1-1--1-1-1-1-||
||-4--4--4-4-4--4-4-4-4--|--2--2--2-2-2--2-2-2-2-||
||-2--2--2-2-2--2-2-2-2--|-----------------------||
||-----------------------|-----------------------||
||
||
||G2
||-----------------------|-----------------------||
||----(12----------------|-----------------------||
||----(11----------------|-----------------------||
||----(12----------------|-----------------------||
||----(9-----------------|-----------------------||
||-----------------------|-----------------------||


  G1 papa ra pa pa eoo eoo
||-0--0--0-0-0--2-0-0-0-|-0--0--0-0-0--2-0-0-0-||
||-2--2--2-2-2--2-2-2-2-|-2--2--2-2-2--2-2-2-2-||
||-1--1--1-1-1--1-1-1-1-|-1--1--1-1-1--1-1-1-1-||
||-2--2--2-2-2--2-2-2-2-|-2--2--2-2-2--2-2-2-2-||
||----------------------|----------------------||
||----------------------|----------------------||
||
||
|| G2
||--(9------------------|----------------------||
||--(9------------------|----------------------||
||--(9------------------|----------------------||
||--(7------------------|----------------------||
||----------------------|----------------------||
||----------------------|----------------------||


     verso 2

  G1 (RIFF 1)
     La vida es un gran baile
  G2
E||--(9------------------|--(9---------------||
B||--(9------------------|--(9---------------||
G||--(9------------------|--(9---------------||
D||--(7------------------|--(7---------------||
A||----------------------|-------------------||
E||----------------------|-------------------||


    y el mundo es un salon
   G2
||--(9--------------|--(9---------------||
||--(9--------------|--(9---------------||
||--(9--------------|--(9---------------||
||--(7--------------|--(7---------------||
||------------------|-------------------||
||------------------|-------------------||


  y hay muchas parejas bailando a nuestro alrededor
   G2
||--------------------|-------------|---(7---------||
||--(10---------------|---(9--------|---(9---------||
||--(11---------------|---(9--------|---(9---------||
||--(12---------------|---(9--------|---(7---------||
||--(9----------------|---(7--------|--------------||
||--------------------|-------------|--------------||


              y entre toda esat gente
   G2
||--(7-----------|--(9----------|--(7-----||
||--(9-----------|--(9----------|--(9-----||
||--(9-----------|--(9----------|--(9-----||
||--(7-----------|--(7----------|--(7-----||
||---------------|--------------|---------||
||---------------|--------------|---------||


  nos fuimos a encontrar pareciamos predestinados
    G2
||--(12----------|--(9-----------|---------------||
||--(10----------|--(9-----------|---(12---------||
||--(9-----------|--(9-----------|---(11---------||
||--(7-----------|--(7-----------|---(12---------||
||---------------|---------------|---(9----------||
||---------------|---------------|---------------||


        para asi bailar
  G2
||--------------------||
||---(9---------------||
||---(9---------------||
||---(9---------------||
||---(7---------------||
||--------------------||


CORO 2:  RIFF 2

   Yo que era un solitario bailando
 me quede sin hablar
 Mientras tu me fuiste demostrando
 que el amor es bailar


     SOLO:
   G1
E||-0--0--0-0-0--2-0-0-0-|-0--0--0-0-0--2-0-0-0-||
B||-2--2--2-2-2--2-2-2-2-|-2--2--2-2-2--2-2-2-2-||
G||-1--1--1-1-1--1-1-1-1-|-1--1--1-1-1--1-1-1-1-||
D||-2--2--2-2-2--2-2-2-2-|-2--2--2-2-2--2-2-2-2-||
A||----------------------|----------------------||
E||----------------------|----------------------||
 ||
 ||
 || G2
E||----------------------|-----------4----------||
B||----------------------|-3/5~~~-------3h5p3---||
G||--------------4--6-7--|--------------------6-||
D||-----4--6--7----------|----------------------||
A||--7-------------------|----------------------||
E||----------------------|----------------------||


   G1
||-0--0--0-0-0--2-0-0-0-|-0--0--0-0-0--2-0-0-0-||
||-2--2--2-2-2--2-2-2-2-|-2--2--2-2-2--2-2-2-2-||
||-1--1--1-1-1--1-1-1-1-|-1--1--1-1-1--1-1-1-1-||
||-2--2--2-2-2--2-2-2-2-|-2--2--2-2-2--2-2-2-2-||
||----------------------|----------------------||
||----------------------|----------------------||
||
||
||G2
||----------------------|----------------------||
||---3/5~~~-------------|----------------------||
||-----------6--4--6----|----------------------||
||----------------------|----------------------||
||----------------------|--7~~~----------------||
||----------------------|----------------------||


  G1
||-2--2--2-2-2--2-2-2-2--|--0--0--0-0-0--0-0-0-0-||
||-3--3--3-3-3--3-3-3-3--|--0--0--0-0-0--0-0-0-0-||
||-4--4--4-4-4--4-4-4-4--|--1--1--1-1-1--1-1-1-1-||
||-4--4--4-4-4--4-4-4-4--|--2--2--2-2-2--2-2-2-2-||
||-2--2--2-2-2--2-2-2-2--|-----------------------||
||-----------------------|-----------------------||
||
||
||G2
||--7)--9---7h9p7--------|-----------------------||
||--7)--------------7~~~-|--9-9-9--10-9-7--------||
||--7)-------------------|-----------------9-----||
||-----------------------|-----------------------||
||-----------------------|-----------------------||
||-----------------------|-----------------------||


 G1
||-0--0--0-0-0--2-0-0-0-|-0--0--0-0-0--2-0-0-0-||
||-2--2--2-2-2--2-2-2-2-|-2--2--2-2-2--2-2-2-2-||
||-1--1--1-1-1--1-1-1-1-|-1--1--1-1-1--1-1-1-1-||
||-2--2--2-2-2--2-2-2-2-|-2--2--2-2-2--2-2-2-2-||
||----------------------|----------------------||
||----------------------|----------------------||
||
||
||G2
||---------------4------|-7-7------------------||
||------------5---------|------9-9-------------||
||--------6-------------|----------5-5---------||
||-----7----------------|--------------6-6-----||
||----------------------|------------------7-7-||
||----------------------|----------------------||


BRIDGE:

 Y ahora que estamos en la pista tu y yo  No quiero
     D         E      C#m7       D7        D7 
E||-------|---------|---------|---------|----------|
B||--0----|----0----|---------|---------|----------|
G||-------|----1----|---------|-----2---|-----2----|
D||--4----|----2----|----2----|-----4---|-----4----|
A||--5----|---------|----4----|-----5---|-----5----|
E||-------|---------|----5----|---------|----------|

       que dejemos de bailar asi
    E           C#m7         C#5     Dm7
||-----------|---------------------|-------------------|
||--0--------|---------------------|-------------------|
||--1--------|---------------------|--2----------------|
||--2--------|--2------------6-----|--4----------------|
||-----------|--4------------4-----|--5----------------|
||-----------|--5------------------|-------------------|

   pues vienen       otros ritmos      Que te quieren
    F             G                    E
||-------------|--------------------|-------------------|
||--1----------|--0-----------------|--0----------------|
||--2----------|--0-----------------|--1----------------|
||--3----------|--12----------------|--2----------------|
||--3----------|--------------------|-------------------|
||-------------|--------------------|-------------------|

  separar de mi     y no pueda abrazarte ni sentir tu cuerpo
     F            F              E          A     Bm/D
||-------------|--------------|-----------|-------------|
||--1----------|--1-----------|--0--------|-2-----3-----|
||--2----------|--2-----------|--1--------|-2-----4-----|
||--3----------|--3-----------|--2--------|-2-----4-----|
||--3----------|--3-----------|-----------|-------2--4--|
||-------------|--------------|-----------|-------------|

         y vuelva a    bailar solo
   Dm7                  C#m7
||-------------------|-------------------|
||--2----------------|--1----------------|
||--2----------------|--1----------------|
||--4----------------|--2----------------|
||--5----------------|--4----------------|
||-------------------|-------------------|

  como antes         de estar junto a   ti__________.
   C                  Bm        Bb      A
||-------------------|------------------5---||
||-------------------|--3---------3-----5---||
||--0----------------|------------------6---||
||--2----------------|--4---------3-----7---||
||--3----------------|--2---------1-----7---||
||-------------------|----------------------||

  verso 3

          riff 1:
    Y asi bailando quiero
  que me hagas el amor
  de hombre a hombre
  voulez vous coucher avec moi.


  CORO:
      D       E          Bm          C#m
      Yo que era un solitario bailando
   D     E        Bm     A
    me quede sin hablar
   D       E          Bm           C#m
    Mientras tu me fuiste demostrando
    D     E        Bm     A
    que el amor es bailaR

       RIFF 2:
      Yo que era un solitario bailando
    me quede sin hablar

    ojo: (este final viene en el unplugged de cafe tacuba)
         pueden segir el verso con el riff 2, es opcional

 Mientras tu me fuiste demostrando    que el amor es......

E||--x-5--x-5--x-5--x-5---|--x-5--x-5--x-5--x-5---||
B||--x-2--x-2--x-2--x-2---|--x-2--x-2--x-2--x-2---||
G||--x-2--x-2--x-2--x-2---|--x-2--x-2--x-2--x-2---||x1
D||--x-2--x-2--x-2--x-2---|--x-2--x-2--x-2--x-2---||
A||-----------------------|-----------------------||
E||-----------------------|-----------------------||


    bailaaar

E||-0--0--0-0-0--2-0-0-0-|-0--0--0-0-0--2-0-0-0-||
B||-2--2--2-2-2--2-2-2-2-|-2--2--2-2-2--2-2-2-2-||
G||-1--1--1-1-1--1-1-1-1-|-1--1--1-1-1--1-1-1-1-||x2
D||-2--2--2-2-2--2-2-2-2-|-2--2--2-2-2--2-2-2-2-||
A||----------------------|----------------------||
E||----------------------|----------------------||  fin


Eicap@

            
            
Suggest correction
Creating personal tab
Creating personal tab
You can edit any tab online and save it as your Personal.

You can edit, replace or remove any tab part or add personal notes – all changes will be seen only by you.

Personal tabs can be accessed anytime from any device, even offline.
Learn more »
Give kudos to tab author, rate the tab!
1 2 3 4 5
comments
print report bad tab
guest
Wanna post a correction for this tab? Suggest correction