Oops, an error
Loading. Please wait.

Aléjate De Mi tab

version 2
version 2

Whole song

Interactive

by Camila
154 views 3 this week
no commentswrite comment
1 2 3 4 5
3 more votes to show rating
add to favorites
×
Save as Personal and add changes to this tab that will be seen only by you. Learn more ›
×
You can save this tab as Personal to edit and correct it or add notes. All changes will be seen only by you. Learn more »
launch autoscroll
font size
0
reset
how to read this tab
guitar tuner
edit
Autoscroll
slow
fast
+/-
esc
set tempo
stop
OK AQUI SE UTILIZA EL CAPO EN EL 4 TRASTE
ESTOS ACORDES SON APARTIR DEL CAPO..


 Am7/5      Fmaj7/C     Em/A*
e|--0--|   e|--0--|   e|--0--|
B|--1--|   B|--1--|   B|--0--|
G|--0--|   G|--2--|   G|--0--|
D|--3--|   D|--3--|   D|--2--|
A|--0--|   A|--3--|   A|--0--|
E|-----|   E|-----|   E|-----|

==INTRO==
e|-------------------------|-------------1-----------|
B|----0--1-----1--0--------|----0--1--------0--------|
G|--2--------2--------0-2--|--2--------2--------0-2--|
D|---------2--------0---3--|--2------2--------0---3--|
A|-------0--------------3--|-------0--------------3--|
E|----------------3--------|----------------3--------|

==ESTROFA==

Alejate de mi y hazlo pronto antes de que te mienta.
e|---------------------------|
B|--1-----1--0---------------|
G|------2--------0-2----2----|
D|----2--------0---3--3---3--|
A|--0--------------3---------|
E|-----------3---------------|

Tu cielo se hace gris , yo ya camino bajo la tormenta.
e|---------------------------|
B|--1-----1--0---------------|
G|------2--------0-2----2----|
D|----2--------0---3--3---3--|
A|--0--------------3---------|
E|-----------3---------------|

Alejate de mi, escapa ve que ya no debo verte.
e|--0------------------------|
B|--------1--0---------------|
G|------2--------0-2----2----|
D|----2--------0---3--3---3--|
A|--0--------------3---------|
E|-----------3---------------|

Entiende que aunque pida que te vayas, no quiero perderte.
e|---------------------------|
B|--1-----1--0---------------|
G|------2--------0-2----2----|
D|----2--------0---3--3---3--|
A|--0--------------3---------|
E|-----------3---------------|

==PRECORO==
    La luz ya,    no alcanza...
e|-------------|-------------|
B|----------0--|--------1----|
G|--0-0--------|--0-0-----2--|
D|--------2----|------2------|
A|------2------|----0--------|
E|----0--------|-------------|

No quieras caminar sobre el dolor descalza...
e|---------|                      |---------------|
B|--1---1--|                      |--1---0--------|
G|--2-2----|                      |----------2-0--|
D|--3------|                      |----2---2------|
A|---------|                      |--0------------|
E|---------|                      |---------------|

  Un Angel      te cuida...
e|-----------|-------------|
B|--------0--|--------1----|
G|--0--------|--0-0-----2--|
D|------2----|------2------|
A|----2------|----0--------|
E|--0--------|-------------|
                                                Am7/5 
Y puso en mi boca la verdad para mostrarme la salida...
e|-------------------|
B|------1-------1----|
G|----0---0---0---0--|
D|--3-------3--------|
A|-------------------|
E|-------------------|

==CORO==
  Fmaj7/C    G    C
Y alejate de mi amor
                      G
Yo se que aun estas a tiempo
                         Am
No soy quien en verdad parezco
      G               Fmaj7/C      G
y perdon no soy quien crees yo no cay del cielo
  Fmaj7/C         G     C
Si aun no me lo crees amor
                         G
y quieres tu correr el riesgo
                         Am
veras que  soy realmente bueno
        G          Fmaj7/C G
en engañar y hacer sufrir  HO

a quien mas quiero,        a quien mas quiero
                  Em        Fmaj7/C        G
e|-----------|-----------|-----------|--------3--|
B|-----------|-----------|------1----|------3----|
G|--2-----2--|--0-----0--|--------2--|-----------|
D|------3----|------2----|----3------|-----------|
A|--3-3------|----2------|--3--------|----2------|
E|-----------|--0--------|-----------|--3--------|

=ESTROFA 2==
 Am                         Em              Fmaj7
Alejate de mi pues tu bien sabes que no te merezco
   Am                         Em                Fmaj7
quiciera arrepentirme, ser el mismo y no decirte esto
 Am                    Em             Fmaj7
Alejate de mi escapa, vete ya no debo verte
  Am                            Em              Fmaj7
Entiende que aunque pida que te vayas no quiero perderte.

=PRECORO==
   Em           Am
La luz ya, no alcanza.....
   Fmaj7                          Asus2  Em/A*
No quieras caminar sobre el dolor descalza.......
   Em        Am
Un Angel te cuida.......
                                                Am7/5 
Y puso en mi boca la verdad para mostrarme la salida....
e|-------------------|
B|------1-------1----|
G|----0---0---0---0--|
D|--3-------3--------|
A|-------------------|
E|-------------------|

==CORO=
  Fmaj7/C    G    C
Y alejate de mi amor
                      G
Yo se que aun estas a tiempo
                         Am
No soy quien en verdad parezco
      G               Fmaj7/C      G
y perdon no soy quien crees yo no cay del cielo
  Fmaj7/C         G     C
Si aun no me lo crees amor
                         G
y quieres tu correr el riesgo
                         Am
veras que  soy realmente bueno
        G          Fmaj7/C
en engañar y hacer sufrir
            G
y hacer llorar
             Am     G   Fmaj7/C    G
a quien mas quiero uooo uooo      uoo

==PARA MAYOR GUIA VISITEN ESTA PAGINA==


            
            
Suggest correction
Creating personal tab
Creating personal tab
You can edit any tab online and save it as your Personal.

You can edit, replace or remove any tab part or add personal notes – all changes will be seen only by you.

Personal tabs can be accessed anytime from any device, even offline.
Learn more »
Give kudos to tab author, rate the tab!
1 2 3 4 5
comments
print report bad tab
guest
Wanna post a correction for this tab? Suggest correction