Oops, an error
Loading. Please wait.

De Mí tab

version 3
version 3

Whole song

by Camila
124 views 3 this week
no commentswrite comment
1 2 3 4 5
3 more votes to show rating
add to favorites
×
Save as Personal and add changes to this tab that will be seen only by you. Learn more ›
×
You can save this tab as Personal to edit and correct it or add notes. All changes will be seen only by you. Learn more »
launch autoscroll
font size
0
reset
how to read this tab
guitar tuner
edit
Autoscroll
slow
fast
+/-
esc
set tempo
stop
OK, bueno, aquí les mando MI corrección de CÓMO es, pues la he
escuchado varias veces y hay algunos acordes que no encajan (según yo)
les incluyo el modo de  comenzar el rasgueo, cualquier duda
comentario avísenme o mandenme un correo. german_ever@

La intro pueden tocarla o no, por eso no la corrijo.
CAPO EN EL SEGUNDO TRASTE, NO TERCERO.

Los nombres de los acordes son los reales, pues el tono aumenta
si se  utiliza capo. Por ejemplo, un Em en el segundo traste es
un F#m. De todos modos les escribo la posición de los dedos para
completar el acorde, (si el capo está en el segundo traste, para
hacer un "F#m".
Basta con poner los dedos como si se tocara un Em)


SI LES GUSTA VOTEN POR FAVOR.


INTRO (Opcional)

--------------------------------------------------------0------0-|
--------------2-----------------------2-----------------0--0---0-|
-------2-h-4----4-h-2------------2-h-4---4-4-2-4-------1----1--1-|
-2-s-4-----------------4-4-2-s-4---------------------2---------2-|
---------------------------------------------------2-----------2-|
-----------------------------------------------------------------|

Acordes con capo en el segundo traste (nombres tomando en cuenta
el capo)
Y  posición de los dedos en los trastes contando desde éste).

Emaj13 C#sus2   F#m  F#7sus4   A      E     B
-0----|---2--|---0--|---0--|---3--|---5--|---5--|
-2----|---2--|---0--|---0--|---3--|---5--|---5--|
-2----|---4--|---0--|---2--|---0--|---7--|---6--|
-0----|---4--|---2--|---0--|---0--|---7--|---7--|
-2----|---2--|---2--|---2--|---2--|---5--|---7--|
-X----|---2--|---0--|---0--|---3--|---5--|---5--|


Emaj13
Nunca había sentido algo así
F#m
la vida me mantuvo siempre en paz
A
llegaste a abrir las puertas del dolor
       E          B
y a regalar la soledad
Emaj13
tu piel envenenó mi corazón
F#m
dejándome en completa oscuridad
A
y así en lugar de olvidarte yo
      E              B
te fui queriendo mucho más

F#m (se inicia el rasgueo desde abajo)
y ahora estas aquí
Emaj13
viéndome sufrir

Coro
     A (Se inicia el rasgueo desde arriba y marcado)
dime como debo hacer
                  B
para olvidarme de tus besos
(Aumenta intensidad de B)    F#m
y si sacarte para siempre de mi...

Emaj13     F#m     C#sus2
de mi.... de mi...de mi.......

C#sus2
Lo supe en el momento en que te vi
F#m
Quererte iba a dolerme de verdad
A
pero volvi a mirarte y comprendi
E                      B
que iria contigo hasta el final

F#m (inicia desde Abajo)
y ahora estas aquí
F#7sus4 (inicia desde arriba)
viéndome sufrir

Coro
"mute"    A
      dime como debo hacer
                    B
para olvidarme de tus besos
                           F#m
y si sacarte para siempre de mi...

F#7sus4    A        C#sus2
de mi... de mi.....de mi....

 F#m                Emaj13
intente alejarme, no pensarte más
no pensarte más

    F#m                 C#sus2 (se toca dos veces)
me dolió entregarme como nunca

lo hice jamás

(Solo)
F#m (inicia desde abajo)
F#7sus4
F#m
F#sus4
A
C#sus2

(2do traste)
C  E------------------------------------------------------
A  B------------------------------------------------------
P  G------------------------------------------------------
O  D--0-0-2-0-2/4-4-4-----2-4-5-4-2-2/4-------------------
   A-------------------------------------5/2-2------------
   E--------------------------------------------5-7-5-5/7-


e-----------------------------------------------------------------
B--------------------------------------------2-3-2h3p2------------
G-----------------------------2/4-4*-4*-4*-4*-4*------------2-4---
D-0-2-2/4-0--0-0-0-0--2-2-4-5-----------------------------4-------
A-----------------------------------------------------------------
E-----------------------------------------------------------------


e---------------------------------------------------------------
B-2h3-2h3p2-----------2-3-5-3-5/7-(7*-7*-7*-7h8p7-7*-7*-7*-7*-7*)
D------------2----4--4------------------------------------------
G---------------4-----------------------------------------------
A---------------------------------------------------------------
E---------------------------------------------------------------


*  = notas tocadas muy suavemente.
() = notas que se repiten


F#m
de mi...
Emaj13    A       C#sus2
de mi.. de mi....de mi.....


Final de orquesta (opcional)


---X--|---X--|---X--|---X--|---X--|
---0--|---0--|---0--|---0--|---0--|
---4--|---6--|---7--|---9--|---11-|
---X--|---X--|---X--|---X--|---X--|    (X5)
---2--|---4--|---5--|---7--|---9--|
---0--|---0--|---0--|---0--|---0--|


---X--|---X--|
---0--|---X--|
---4--|---X--|
---X--|---4--|  (X2)
---2--|---X--|
---0--|---2--|

            
            
Suggest correction
Creating personal tab
Creating personal tab
You can edit any tab online and save it as your Personal.

You can edit, replace or remove any tab part or add personal notes – all changes will be seen only by you.

Personal tabs can be accessed anytime from any device, even offline.
Learn more »
Give kudos to tab author, rate the tab!
1 2 3 4 5
comments
print report bad tab
guest
Wanna post a correction for this tab? Suggest correction