Oops, an error
Loading. Please wait.

Todavía Te Alcanzo A Ver bass

by Canseco
58 views 1 this week
no commentswrite comment
1 2 3 4 5
3 more votes to show rating
add to favorites
×
Save as Personal and add changes to this tab that will be seen only by you. Learn more ›
×
You can save this tab as Personal to edit and correct it or add notes. All changes will be seen only by you. Learn more »
launch autoscroll
font size
0
reset
guitar tuner
edit
Autoscroll
slow
fast
+/-
esc
set tempo
stop
    Hola ;) ps aqui les tengo otra tab que
      para mi gusto esta bastante bien.

   DEDICADA MUY ESPECIALMENTE A BRENDA
***************************************************************

    INTRO   0:00

G--------------------------------------
D--------------------------------------
A-3--3-3-3----------1--1-1-1-----------
E----------1--1-1-1-----------3--3-3-3-

G----------------------------------------
D----------------------------------------
A-3--3-3-3----------1--1-1-1-1--1-1-1----
E----------1--1-1-1-------------------3*-

    VERSO 1   0:31

    Hoy estas pidiendo mi amistad...
G--------------------------------
D--------------------------------
A----------3*-----------------1*-
E-3*----------------1*-----------

    CORO 1  0:46

    Vamos un rato a caminar...
G--------------------------------------
D--------------------------------------
A-3--3-3-6----------1--1-1-3-----------  X3
E----------1--1-1-5-----------3--3-3-6-

    Todavia te alcanzo a ver.
G-----------------------------------------
D-----------------------------------------
A-3--3-3-6-----------1--1-1-1-1--1-1-1----
E-----------1--1-1-5-------------------3*-

    VERSO 2  1:18

    Ya hice mis maletas ya me voy...
G--------------------------------
D--------------------------------
A----------3*-----------------1*-
E-3*----------------1*-----------

    Y no te encontre en el cielo...
G--------------------------------
D--------------------------------
A----------3*-----------------1*-
E-3*----------------1*-----------

    CORO 2   1:49

    Vamos un rato a caminar...
G--------------------------------------
D--------------------------------------
A-3--3-3-6----------1--1-1-3-----------  X3
E----------1--1-1-5-----------3--3-3-6-

    Todavia te alcanzo a ver.
G--------------------------------------
D--------------------------------------
A-3--3-3-6-----------1--1-1-1-1--1-1-1-
E-----------1--1-1-5-------------------


    SOLO   2:20

G-------------------------------------
D-------5-----------------------------
A-3-5-6------------1--1-1-3-----------  X2
E---------1--1-1-5----------3--3-3-6--

   FINAL   2:36

    Si tu quieres regresar...
G--------------------------------------
D--------------------------------------
A-3--3-3-6----------1--1-1-3-----------
E----------1--1-1-5-----------3--3-3-6-

    Deja tu orgullo y ven a mi.
G--------------------------------------
D--------------------------------------
A-3--3-3-6-----------1--1-1-1-1--1-1-1-
E-----------1--1-1-5-------------------

    Y si lo pierdes todo...
G--------------------------------------
D--------------------------------------
A-3--3-3-6----------1--1-1-3-----------
E----------1--1-1-5-----------3--3-3-6-

    Siempre podras caer en mi.
G-------------------------------
D-------------------------------
A-3--3-3-6-----------1--1-1-1-1-
E-----------1--1-1-5------------


***************************************************************

    Letra:

1-2-3-
Nunk he sido bueno Al olvidar..
Pero si tu lo pides pues lo puedo intentar
hoy estas pidiendo mi amistad
te juro que hoy no puedo pero un dia asi sera

vamos un rato a kaminar
que hoy no puedo sin ti
hay noches que yo mataria por tus besos mi amor
abriste tus alas y al volar ..
te fuiste lejos de mi pero
tOdAvIa tE  aLkNzO A VeR!!!!

ya hice mis maletas ya me voy
te espero hoy kontento y no sabes donde estoy
me subi al avion sin ver atras y no te encontre en el cielo
ya no kiero regresar

vamos un rato a kaminar
que hoy no puedo sin ti
hay noches que yo mataria por tus besos mi amor
abriste tus alas y al volar ..
te fuiste lejos de mi pero
tOdAvIa tE  aLkNzO A VeR!!!!

SI TU KIERES RAGRESAR
SI TE DESPIERTAS Y ME EXTRAÑAS
DEJA TU ORGULLO Y VEN AMI
Y SI LO PIERDES TODO Y TUS ALAS SE ROMPEN Y NO PUEDES VOLAR
SIEMPRE PODRAS CAER EN MI.....

***************************************************************

Y como siempre saludos a toda la banda:

 *RICARDO (PUNK)*
 *GILBERTO*
 *BRENDA*
 *JULIETA (JULS)*
 *GABY*
 *ALEJANDRO (PIPIPIPI)*
 *ARTURO (NAZI)*
 *IRVING (TOPO)*
 *FERNANDO*
 *ROGELIO (ROGER)*

y a todos los demas

****************************************************************

            
            
Suggest correction
Creating personal tab
Creating personal tab
You can edit any tab online and save it as your Personal.

You can edit, replace or remove any tab part or add personal notes – all changes will be seen only by you.

Personal tabs can be accessed anytime from any device, even offline.
Learn more »
Give kudos to tab author, rate the tab!
1 2 3 4 5
comments
print report bad tab
guest
Wanna post a correction for this tab? Suggest correction