Oops, an error
Loading. Please wait.

Todo Está Mal tab

by Canseco
53 views 1 this week
no commentswrite comment
1 2 3 4 5
3 more votes to show rating
add to favorites
×
Save as Personal and add changes to this tab that will be seen only by you. Learn more ›
×
You can save this tab as Personal to edit and correct it or add notes. All changes will be seen only by you. Learn more »
launch autoscroll
font size
0
reset
how to read this tab
guitar tuner
edit
Autoscroll
slow
fast
+/-
esc
set tempo
stop
Hola esta en mi primer transcripción y la hice porque no encontraba esta
canción por ningún lado y creo que habrá gente que tampoco [la eh editado una
vez más por que la primera vez que la transribi no sonaba tan bien, ahora e
agregado las tablaturas y modificado los acordes espero este mejor lol

Intro:
F#m
4|-4-6-4-2-0--------|x2
5|--------------1/9-|

1|----0-----0--0--0--0--0--0--0--0-| y así, no pude contar bien cuantas
2|---------------------------------| veces pero ustedes vean eso
3|-2-2-----2--2--2--2--2--2--2--2--|
4|--2-----2--2--2--2--2--2--2--2---|
5|---------------------------------|
6|---------------------------------|


Estrofa:


F#m  Am                         Am        aquí se alarga un poco
                                           hasta llegar al acorde
   5|-5-------------------------5/9----------------|

      Y lo difícil de cambiar es saber cuando parar

           Am                         Am
   5|------9/5------------------------5/9---------|
   Cuando sabes que estas mal ya nada puedes disfrutar


1|----0-0---0--0-0---0--0-0---0--0-0---|
2|---------2--------2--------2---------|
3|---2----2---2----2---2----2---2------|
4|-------------------------------------|
5|-------------------------------------|
6|-------------------------------------|


F#m   Am                            Am

   5|-5-----------------------------5/9----------------|
      Es cuando empiezas a tomar, y te vas a otro lugar
      Am                                 Am
      5|------5/9------------------------5/9---------|
      Es como irte de esta ciudad, y regresar y todo igual


  Coro:
1|----0-0---0--0-0---0--0-0---0--0-0---|
2|---------2--------2--------2---------|
3|---2----2---2----2---2----2---2------|
4|-------------------------------------|
5|-------------------------------------|
6|-------------------------------------|

                 C
Es como subir al cielo bajar al infierno


todo lo quiero lo tengo y lo pierdo

            A     E    F#m
Y sabes que no puedo volar
            A     E    F#m
conmigo no sabes que esperar

       A        E        F#m                   A    E      F#m
y te hable y te dije que todo estaba bien pero todo estaba mal

Intermedio
  F#m

1|----0-0---0--0-0---0--0-0---0--0-0---|
2|---------2--------2--------2---------|
3|---2----2---2----2---2----2---2------|
4|-------------------------------------|
5|-------------------------------------|
6|-------------------------------------|


  Coro:

1|----0-0---0--0-0---0--0-0---0--0-0---|
2|---------2--------2--------2---------|
3|---2----2---2----2---2----2---2------|
4|-------------------------------------|
5|-------------------------------------|
6|-------------------------------------|
                 C
Es como subir al cielo bajar al infierno


todo lo quiero lo tengo y lo pierdo

            A     E    F#m
Y sabes que no puedo volar
            A     E    F#m
conmigo no sabes que esperar

       A        E        F#m                   A    E      F#m
y te hable y te dije que todo estaba bien pero todo estaba mal


1|---5---5---5---5---|
2|-2---2---2---2---2-|


Bueno no estoy seguro de que estén 100% bien pero a mi me sonaron
parecidas espero les guste

            
            
Suggest correction
Creating personal tab
Creating personal tab
You can edit any tab online and save it as your Personal.

You can edit, replace or remove any tab part or add personal notes – all changes will be seen only by you.

Personal tabs can be accessed anytime from any device, even offline.
Learn more »
Give kudos to tab author, rate the tab!
1 2 3 4 5
comments
print report bad tab
guest
Wanna post a correction for this tab? Suggest correction